Song name
# A B C D E F G H I J K L M N O P Q R S T U V W X Y Z

Catfish And The Bottlemen - Rango chords

Highlighted       Show chord diagrams
-------------------------------------------------------------------------------
                             RANGO - Catfish and the Bottlemen
-------------------------------------------------------------------------------
Tabbed by: Ben Musgrove
E-mail: mussyjunior@hotmail.co.uk

Tuning: Standard

Main riff:

e|---------------------------------------------------------------------------|
B|---8---8---8---8---8---8-----8-----12----12----12---12---12---12---12------|
G|-9---9---9---9---9---9---9-7---7s12---12----12----12---12---12---12--12-11-|
D|---------------------------------------------------------------------------|
A|---------------------------------------------------------------------------|
E|---------------------------------------------------------------------------|
    x2


Verse:

            Em
Darlin' I'm done for once
       D             G
And as soon as I get out of here
          Em
I plan on coming back for nothing
    D                  G
But then again there's you
                  Em
And although this town does flaunt
        D                 G
All the stuff you need to feel at home
          Em
I plan on taking from it nothing,
    D                  G
But then again there's you


Chorus:

C          D      Em
Abby she's got to wait
           C       D        G
Until she gets you on your own
           C        D         Em
So she can make you make mistakes
            C        D        G
And you can offer to take her home

Verse and chorus remain the same throughout, with nothing more than dynamic changes 
varying between them. Play it by ear and get a feel for how you want to deliver it.

Solo:

e|--------------------------------------------------------------------------|
B|-13b15~-12-12-12-10-10-10----------------12-12-12-10-10-10----------------|
G|--------------------------12-12-9b10r9-7-------------------12-12-9b10r9-7-|
D|--------------------------------------------------------------------------|
A|--------------------------------------------------------------------------|
E|--------------------------------------------------------------------------|
    x2

Verse rhythm plays under it.

Lyrics:

Darlin' I'm done for once
And as soon as I get out of here
I plan on coming back for nothing
But then again there's you
And although this town does flaunt
All the stuff you need to feel at home
I plan on taking from it nothing,
But then again there's you

Abby she's got to wait
Until she gets you on your own
So she can make you make mistakes
And you can offer to take her home

It's not like I don't miss it none
But the quicker I drink more in here
The quicker I lose track of you
But I know you wouldn't want that
And although this town does flaunt
Much thicker stories than I care to talk
Darling you you've ducked them in style
I'll always love you for that

Abby she's got to wait
Until she gets you on your own
So she can make you make mistakes
And you can offer to take her home
And now she's wearing that top you love
And she's topping it all off
By acting like somethings up
She always knew how to pull the strings

Abby she's got to wait
Until she gets you on your own
So she can make you make mistakes
And you can offer to take her home
And now she's wearing that top you love
And she's topping it all off
By acting like somethings up
She always knew how to pull the strings
Tap to rate this tab
# A B C D E F G H I J K L M N O P Q R S T U V W X Y Z