Song name
# A B C D E F G H I J K L M N O P Q R S T U V W X Y Z

Catupecu Machu - Magia Veneno tab

                       Catupecu Machu - Magia Veneno

Standard Tuning (EADGBe)

Guitarra 1

Main Riff Intro

|--------|--------|----|
|--------|--6-7-9-|-6--|
|---9--7-|-9------|---9|
|-7------|--------|----|
|--------|--------|----|


Los inviernos de una noche...
|-------------------|----------------------|
|-------------------|----------------------|
|-------------------|----------------------|
|--7----------------|----------6--6--6--6--|
|--7----------------|----------6--6--6--6--|
|--5----------------|----------4--4--4--4--|

--------------------------|--------------------------|
--------------------------|--------------------------|
--------------------------|--------------------------|
--6--6--6--6--6--6--6--6--|--9--9--9--9--9--9--9--9--|
--6--6--6--6--6--6--6--6--|--9--9--9--9--9--9--9--9--|
--4--4--4--4--4--4--4--4--|--7--7--7--7--7--7--7--7--|



--------------------------|--------------------------|
--------------------------|--------------------------|
--------------------------|--------------------------|
--9--9--9--9--4--4--4--4--|--4--4--4--4--4--4--4--4--|
--9--9--9--9--4--4--4--4--|--4--4--4--4--4--4--4--4--|
--7--7--7--7--2--2--2--2--|--2--2--2--2--2--2--2--2--|


 Las semillas de tu encanto...
--------------------------|--------------------------|
--------------------------|--------------------------|
--------------------------|--------------------------|
--7--7--7--7--7--7--7--7--|--7--7--7--7--6--6--6--6--|
--7--7--7--7--7--7--7--7--|--7--7--7--7--6--6--6--6--|
--5--5--5--5--5--5--5--5--|--5--5--5--5--4--4--4--4--|



--------------------------|--------------------------|
--------------------------|--------------------------|
--------------------------|--------------------------|
--6--6--6--6--6--6--6--6--|--9--9--9--9--9--9--9--9--|
--6--6--6--6--6--6--6--6--|--9--9--9--9--9--9--9--9--|
--4--4--4--4--4--4--4--4--|--7--7--7--7--7--7--7--7--|



--------------------------|--------------------------|
--------------------------|--------------------------|
--------------------------|--------------------------|
--9--9--9--9--4--4--4--4--|--4--4--4--4--4--4--4--4--|
--9--9--9--9--4--4--4--4--|--4--4--4--4--4--4--4--4--|
--7--7--7--7--2--2--2--2--|--2--2--2--2--2--2--2--2--|


Piel de oro, rojo...(de lo oscuro hacia la luz...)
|---------------------------|--------------------------|
|---------------------------|--------------------------|
|*--------------------------|--------------------------|
|*--7--7--7--7--7--7--7--7--|--7--7--7--7--6--6--6--6--|
|---7--7--7--7--7--7--7--7--|--7--7--7--7--6--6--6--6--|
|---5--5--5--5--5--5--5--5--|--5--5--5--5--4--4--4--4--|



--------------------------|--------------------------|
--------------------------|--------------------------|
--------------------------|--------------------------|
--6--6--6--6--6--6--6--6--|--9--9--9--9--9--9--9--9--|
--6--6--6--6--6--6--6--6--|--9--9--9--9--9--9--9--9--|
--4--4--4--4--4--4--4--4--|--7--7--7--7--7--7--7--7--|



--------------------------|---------------------------|
--------------------------|---------------------------|
--------------------------|--------------------------*|
--9--9--9--9--4--4--4--4--|--4--4--4--4--4--4--4--4--*|
--9--9--9--9--4--4--4--4--|--4--4--4--4--4--4--4--4---|
--7--7--7--7--2--2--2--2--|--2--2--2--2--2--2--2--2---|

Main Riff

|--------|--------|----|
|--------|--6-7-9-|-6--|
|---9--7-|-9------|---9|
|-7------|--------|----|
|--------|--------|----|

Coro

Veo en partes lo que tu ves...
--------------------------|--------------------------|
--------------------------|--------------------------|
--------------------------|--------------------------|
--7--7--7--7--7--7--7--7--|--7--7--7--7--6--6--6--6--|
--7--7--7--7--7--7--7--7--|--7--7--7--7--6--6--6--6--|
--5--5--5--5--5--5--5--5--|--5--5--5--5--4--4--4--4--|



--------------------------|--------------------------|
--------------------------|--------------------------|
--------------------------|--------------------------|
--6--6--6--6--6--6--6--6--|--9--9--9--9--9--9--9--9--|
--6--6--6--6--6--6--6--6--|--9--9--9--9--9--9--9--9--|
--4--4--4--4--4--4--4--4--|--7--7--7--7--7--7--7--7--|



--------------------------|--------------------------|
--------------------------|--------------------------|
--------------------------|--------------------------|
--9--9--9--9--4--4--4--4--|--4--4--4--4--4--4--4--4--|
--9--9--9--9--4--4--4--4--|--4--4--4--4--4--4--4--4--|
--7--7--7--7--2--2--2--2--|--2--2--2--2--2--2--2--2--|


Veo en partes lo que tu ves...
--------------------------|--------------------------|
--------------------------|--------------------------|
--------------------------|--------------------------|
--7--7--7--7--7--7--7--7--|--7--7--7--7--6--6--6--6--|
--7--7--7--7--7--7--7--7--|--7--7--7--7--6--6--6--6--|
--5--5--5--5--5--5--5--5--|--5--5--5--5--4--4--4--4--|



--------------------------|--------------------------|
--------------------------|--------------------------|
--------------------------|--------------------------|
--6--6--6--6--6--6--6--6--|--9--9--9--9--9--9--9--9--|
--6--6--6--6--6--6--6--6--|--9--9--9--9--9--9--9--9--|
--4--4--4--4--4--4--4--4--|--7--7--7--7--7--7--7--7--|

----------|-----------------|
----------|-----------------|
----------|-----------------|
--9-9-9-9-|-4-4-4-4-4-4-4-4-|
--9-9-9-9-|-4-4-4-4-4-4-4-4-|
--7-7-7-7-|-2-2-2-2-2-2-2-2-|

Main Riff


|--------|--------|----|
|--------|--6-7-9-|-6--|
|---9--7-|-9------|---9|
|-7------|--------|----|
|--------|--------|----|

Verso


|-----------------|
|-----------------|
|-----------------|
|-7-7-7-7-7-7-7-7-|
|-7-7-7-7-7-7-7-7-|
|-5-5-5-5-5-5-5-5-|


--------------------------|--------------------------|
--------------------------|--------------------------|
--------------------------|--------------------------|
--7--7--7--7--6--6--6--6--|--6--6--6--6--6--6--6--6--|
--7--7--7--7--6--6--6--6--|--6--6--6--6--6--6--6--6--|
--5--5--5--5--4--4--4--4--|--4--4--4--4--4--4--4--4--|



--------------------------|--------------------------|
--------------------------|--------------------------|
--------------------------|--------------------------|
--9--9--9--9--9--9--9--9--|--9--9--9--9--4--4--4--4--|
--9--9--9--9--9--9--9--9--|--9--9--9--9--4--4--4--4--|
--7--7--7--7--7--7--7--7--|--7--7--7--7--2--2--2--2--|


                           Lo que pides, lo que puedo...
--------------------------|--------------------------|
--------------------------|--------------------------|
--------------------------|--------------------------|
--4--4--4--4--4--4--4--4--|--7--7--7--7--7--7--7--7--|
--4--4--4--4--4--4--4--4--|--7--7--7--7--7--7--7--7--|
--2--2--2--2--2--2--2--2--|--5--5--5--5--5--5--5--5--|



--------------------------|--------------------------|
--------------------------|--------------------------|
--------------------------|--------------------------|
--7--7--7--7--6--6--6--6--|--6--6--6--6--6--6--6--6--|
--7--7--7--7--6--6--6--6--|--6--6--6--6--6--6--6--6--|
--5--5--5--5--4--4--4--4--|--4--4--4--4--4--4--4--4--|



--------------------------|--------------------------|
--------------------------|--------------------------|
--------------------------|--------------------------|
--9--9--9--9--9--9--9--9--|--9--9--9--9--4--4--4--4--|
--9--9--9--9--9--9--9--9--|--9--9--9--9--4--4--4--4--|
--7--7--7--7--7--7--7--7--|--7--7--7--7--2--2--2--2--|


                           Vuelto otro, alter ego
--------------------------||---------------------------|
--------------------------||---------------------------|
--------------------------||*--------------------------|
--4--4--4--4--4--4--4--4--||*--7--7--7--7--7--7--7--7--|
--4--4--4--4--4--4--4--4--||---7--7--7--7--7--7--7--7--|
--2--2--2--2--2--2--2--2--||---5--5--5--5--5--5--5--5--|



--------------------------|--------------------------|
--------------------------|--------------------------|
--------------------------|--------------------------|
--7--7--7--7--6--6--6--6--|--6--6--6--6--6--6--6--6--|
--7--7--7--7--6--6--6--6--|--6--6--6--6--6--6--6--6--|
--5--5--5--5--4--4--4--4--|--4--4--4--4--4--4--4--4--|



--------------------------|--------------------------|
--------------------------|--------------------------|
--------------------------|--------------------------|
--9--9--9--9--9--9--9--9--|--9--9--9--9--4--4--4--4--|
--9--9--9--9--9--9--9--9--|--9--9--9--9--4--4--4--4--|
--7--7--7--7--7--7--7--7--|--7--7--7--7--2--2--2--2--|

-----------------|
-----------------|
-----------------|
-4-4-4-4-4-4-4-4-|
-4-4-4-4-4-4-4-4-|
-2-2-2-2-2-2-2-2-|

Main Riff

|--------|--------|----|
|--------|--6-7-9-|-6--|
|---9--7-|-9------|---9|
|-7------|--------|----|
|--------|--------|----|

Coro

Veo en partes lo que tu ves...
--------------------------|--------------------------|
--------------------------|--------------------------|
--------------------------|--------------------------|
--7--7--7--7--7--7--7--7--|--7--7--7--7--6--6--6--6--|
--7--7--7--7--7--7--7--7--|--7--7--7--7--6--6--6--6--|
--5--5--5--5--5--5--5--5--|--5--5--5--5--4--4--4--4--|



--------------------------|--------------------------|
--------------------------|--------------------------|
--------------------------|--------------------------|
--6--6--6--6--6--6--6--6--|--9--9--9--9--9--9--9--9--|
--6--6--6--6--6--6--6--6--|--9--9--9--9--9--9--9--9--|
--4--4--4--4--4--4--4--4--|--7--7--7--7--7--7--7--7--|



--------------------------|--------------------------|
--------------------------|--------------------------|
--------------------------|--------------------------|
--9--9--9--9--4--4--4--4--|--4--4--4--4--4--4--4--4--|
--9--9--9--9--4--4--4--4--|--4--4--4--4--4--4--4--4--|
--7--7--7--7--2--2--2--2--|--2--2--2--2--2--2--2--2--|


Veo en partes lo que tu ves...
--------------------------|--------------------------|
--------------------------|--------------------------|
--------------------------|--------------------------|
--7--7--7--7--7--7--7--7--|--7--7--7--7--6--6--6--6--|
--7--7--7--7--7--7--7--7--|--7--7--7--7--6--6--6--6--|
--5--5--5--5--5--5--5--5--|--5--5--5--5--4--4--4--4--|



--------------------------|--------------------------|
--------------------------|--------------------------|
--------------------------|--------------------------|
--6--6--6--6--6--6--6--6--|--9--9--9--9--9--9--9--9--|
--6--6--6--6--6--6--6--6--|--9--9--9--9--9--9--9--9--|
--4--4--4--4--4--4--4--4--|--7--7--7--7--7--7--7--7--|

----------|-----------------|
----------|-----------------|
----------|-----------------|
--9-9-9-9-|-4-4-4-4-4-4-4-4-|
--9-9-9-9-|-4-4-4-4-4-4-4-4-|
--7-7-7-7-|-2-2-2-2-2-2-2-2-|

Bridge

|-------------------|-------------------|
|-------------------|-------------------|
|-------------------|-------------------|
|--7----------------|----------7--------|
|--7----------------|-------------------|
|--5----------------|-------------------|




------------------|----------------------|-------------------|
------------------|----------------------|-------------------|
------------------|----------------------|-------------------|
------------------|--7-7-7--7------------|----------7--------|
------------------|----------------------|-------------------|
------------------|----------------------|-------------------|

Veo en partes lo que tu ves...
--------------------------|--------------------------|
--------------------------|--------------------------|
--------------------------|--------------------------|
--7--7--7--7--7--7--7--7--|--7--7--7--7--6--6--6--6--|
--7--7--7--7--7--7--7--7--|--7--7--7--7--6--6--6--6--|
--5--5--5--5--5--5--5--5--|--5--5--5--5--4--4--4--4--|



--------------------------|--------------------------|
--------------------------|--------------------------|
--------------------------|--------------------------|
--6--6--6--6--6--6--6--6--|--9--9--9--9--9--9--9--9--|
--6--6--6--6--6--6--6--6--|--9--9--9--9--9--9--9--9--|
--4--4--4--4--4--4--4--4--|--7--7--7--7--7--7--7--7--|



--------------------------|--------------------------|
--------------------------|--------------------------|
--------------------------|--------------------------|
--9--9--9--9--4--4--4--4--|--4--4--4--4--4--4--4--4--|
--9--9--9--9--4--4--4--4--|--4--4--4--4--4--4--4--4--|
--7--7--7--7--2--2--2--2--|--2--2--2--2--2--2--2--2--|

Outro

----------------------------------------------|
----------------------------------------------|
--6-6-6-6-6-6-6-6-6-6-6-6-6-6-6-6-6-6-6-6-6-6-|
----------------------------------------------| (x3)
----------------------------------------------|
----------------------------------------------|

Main Riff Outro

|--------|--------|----|----|
|--------|--6-7-9-|-6--|----|
|---9--7-|-9------|---9|-7/-|
|-7------|--------|----|-7/-|
|--------|--------|----|-5/-|







Tap to rate this tab
# A B C D E F G H I J K L M N O P Q R S T U V W X Y Z