Song name
# A B C D E F G H I J K L M N O P Q R S T U V W X Y Z

Cause - Lies tab

Metrokueen - Lies


1st Solo:


    F__________________________________   G___
E|---------------------------------------------|
B|---------------------------------------------|
G|--10~-----9h10h12---10p9-----9----------7~~--|
D|--------------------------12----12b-r--------|
A|---------------------------------------------|
E|---------------------------------------------|


_______________ F___________________________  E_______________
E|-----------------------------------------------------|
B|---------------------------------------7-/-5--(5)----|
G|-(5)-7b--7--5----------------------------------------|
D|--------------7~---5--------------5----7-/-5--(5)----|
A|----------------------7p6p5h6h7----------------------|
E|-----------------------------------------------------|


     F___________________________   G__________
E|----------------------------------------------|
B|----------------------------------------------|
G|--10~----9h10h12p10p9----9h10p9--10fb(12)-----|
D|----------------------12----------------------|
A|----------------------------------------------|
E|----------------------------------------------|


_______________________    F_________________________    D___________
E|---------------------------------------------------------------|
B|------12-10--9h10p9---9h10~--(10)--10--\-(8)--8~~--------------|
G|--10fb-------------10----------------11\-(9)----9p7-9--9fb~--~-|
D|---------------------------------------------------------------|
A|---------------------------------------------------------------|
E|---------------------------------------------------------------|


============================================

www.myspace.com/metrokueen
Tap to rate this tab
# A B C D E F G H I J K L M N O P Q R S T U V W X Y Z