Song name
# A B C D E F G H I J K L M N O P Q R S T U V W X Y Z

Cave Story - Access tab

Hey guys!

This is my first of hopefully many tabs. 
I noticed that you can't find any tabs of Cave Story, let alone any sheet music! 
So I figured I'd give my go at tabbing some of Amaya's pieces by ear.

-Access-
by Daisuke Amaya a.k.a. Pixel
http://www.miraigamer.net/cavestory/
http://www.cavestory.com/

E|----------------------------------------------------------------|
B|----------------------------------------------------------------|
G|----------------------------------------------------------------|
D|---------16-------------14-------------16------------14---------|
A|-17--17---------15--15---------17--17--------15--15-------------|
E|----------------------------------------------------------------|

E|----------------------------------------------------------------|
B|----------------------------------------------------------------|
G|----------------------------------------------------------------|
D|---------16-------------14-------------16------------14---------|
A|-17--17---------15--15---------17--17--------15--15-------------|
E|----------------------------------------------------------------|

E|----------------------------------------------------------------|
B|----------------------------------------------------------------|
G|----------------------------------------------------------------|
D|---------12-------------10-------------12------------10---------|
A|-13--13---------11--11---------13--13--------11--11-------------|
E|----------------------------------------------------------------|

E|----------------------------------------------------------------|
B|----------------------------------------------------------------|
G|----------------------------------------------------------------|
D|---------12-------------10-------------12-----------------------|
A|-13--13---------11--11---------13--13--------11--11--15--16-----|
E|----------------------------------------------------------------|

And simply repeats as such. Alternatively, it can be played on the higher strings, like so:

E|---------14-------------12-------------14------------12---------|
B|-15--15---------13--13---------15--15--------13--13-------------|
G|----------------------------------------------------------------|
D|----------------------------------------------------------------|
A|----------------------------------------------------------------|
E|----------------------------------------------------------------|

E|---------14-------------12-------------14------------12---------|
B|-15--15---------13--13---------15--15--------13--13-------------|
G|----------------------------------------------------------------|
D|----------------------------------------------------------------|
A|----------------------------------------------------------------|
E|----------------------------------------------------------------|

E|---------10-------------8--------------10------------8----------|
B|-11--11----------9--9----------11--11----------9--9-------------|
G|----------------------------------------------------------------|
D|----------------------------------------------------------------|
A|----------------------------------------------------------------|
E|----------------------------------------------------------------|

E|---------10-------------8--------------10-----------------------|
B|-11--11----------9--9----------11--11----------9--9--13--14-----|
G|----------------------------------------------------------------|
D|----------------------------------------------------------------|
A|----------------------------------------------------------------|
E|----------------------------------------------------------------|

Have fun playing!

---Cave Tabber
Tap to rate this tab
# A B C D E F G H I J K L M N O P Q R S T U V W X Y Z