Song name
# A B C D E F G H I J K L M N O P Q R S T U V W X Y Z

Celine Dion - My Heart Will Go On tab

It isn't so perfect but it sounds well

Verse
e-3---3-3--3-2-3--3-2-3--5-7-5---3---3-3--3-2-3---7---------|
B-----------------------------------------------------5--3--|
G-----------------------------------------------------------|
D-----------------------------------------------------------|

Chorus
e-3--5-----7-8-7-5--7-8-7--5--3-2-3---3-2-3--5-7-5--3----|
B-------5------------------------------------------------|
G--------------------------------------------------------|
D--------------------------------------------------------|

Piano part
e--------------------------------------------------------------------|
B-3-5-7--8-7-5-10--7-10-12--12-10-7-5---12-14-15--15-14-10---10-7-5--|
G--------------------------------------------------------------------|
D--------------------------------------------------------------------|
Tap to rate this tab
# A B C D E F G H I J K L M N O P Q R S T U V W X Y Z