Song name
# A B C D E F G H I J K L M N O P Q R S T U V W X Y Z

Celldweller - Kill The Sound tab

Celldweller - Kill The Sound
Ear-transcribed from:
 - http://www.youtube.com/watch?v=G8uHkTuHU0Y 
 - http://www.youtube.com/watch?v=M7La8kP1WAI

I am not 100% sure about every part, but I think this is close enough :)
And I am 100% sure the lyrics are wrong, but it's the tabs that matter, right? ;)

Intro (5 measures)

Verse

   P.M. from here
D|---------------------------------|---------------------------------|
A|---------------------------------|---------------------------------|
F|---------------------------------|---------------------------------|
C|-5-5-5-5-5-5-5-5-8-8-8-8-8-8-8-8-|-0-0-0-0-0-0-0-0-3-3-3-3-3-3-3-3-|
G|-5-5-5-5-5-5-5-5-8-8-8-8-8-8-8-8-|-0-0-0-0-0-0-0-0-3-3-3-3-3-3-3-3-|
C|-5-5-5-5-5-5-5-5-8-8-8-8-8-8-8-8-|-0-0-0-0-0-0-0-0-3-3-3-3-3-3-3-3-|
       I'm trying  not   to     drown            beneath     the

D|---------------------------------|---------------------------------|
A|---------------------------------|---------------------------------|
F|---------------------------------|---------------------------------|
C|-5-5-5-5-5-5-5-5-8-8-8-8-8-8-8-8-|-0-0-0-0-0-0-0-0-2-2-2-2-2-2-2-2-|
G|-5-5-5-5-5-5-5-5-8-8-8-8-8-8-8-8-|-0-0-0-0-0-0-0-0-2-2-2-2-2-2-2-2-|
C|-5-5-5-5-5-5-5-5-8-8-8-8-8-8-8-8-|-0-0-0-0-0-0-0-0-2-2-2-2-2-2-2-2-|
sound  but it's  taking         over

D|---------------------------------|---------------------------------|
A|---------------------------------|---------------------------------|
F|---------------------------------|---------------------------------|
C|-5-5-5-5-5-5-5-5-8-8-8-8-8-8-8-8-|-0-0-0-0-0-0-0-0-3-3-3-3-3-3-3-3-|
G|-5-5-5-5-5-5-5-5-8-8-8-8-8-8-8-8-|-0-0-0-0-0-0-0-0-3-3-3-3-3-3-3-3-|
C|-5-5-5-5-5-5-5-5-8-8-8-8-8-8-8-8-|-0-0-0-0-0-0-0-0-3-3-3-3-3-3-3-3-|
       I've tried to shut  it    down    but it grows ever     loud

D|---------------------------------|
A|---------------------------------|
F|---------------------------------|
C|-2-2-2-2-2-2-2-2-2-2-2-2-2-2-2-2-|
G|-2-2-2-2-2-2-2-2-2-2-2-2-2-2-2-2-|
C|-2-2-2-2-2-2-2-2-2-2-2-2-2-2-2-2-|

Chorus
   P.M. end
D|---------------------------------|---------------------------------|
A|---------------------------------|---------------------------------|
F|---------------------------------|---------------------------------|
C|-1-0-----------------------------|-5-4-----------------------------|
G|-1-0-------------------------3---|-5-4-------------------------10--|
C|-1-0---------------------------0-|-5-4---------------------------0-|
       Two voices in my head             And I want one of them dead

D|---------------------------------|---------------------------------|
A|---------------------------------|---------------------------------|
F|---------------------------------|---------------------------------|
C|-1-0-----------------------------|-5-4-----------------------------|
G|-1-0-------------------------3---|-5-4-------------------------10--|
C|-1-0---------------------------0-|-5-4---------------------------0-|
       So  I  can  focus  on  remembering the words you said    *KILL THE SOUND!*

D|---------------------------------|---------------------------------|
A|---------------------------------|---------------------------------|
F|---------------------------------|---------------------------------|
C|-1-0-0-1-0-0-----1-0-0-1-0-0-----|-5-4-4-5-4-4-----8-7-7-8-7-7-----|
G|-1-0-0-1-0-0-3---1-0-0-1-0-0-3---|-5-4-4-5-4-4-5---8-7-7-8-7-7-10--|
C|-1-0-0-1-0-0---0-1-0-0-1-0-0---0-|-5-4-4-5-4-4---0-8-7-7-8-7-7---0-|
       Foundations trembling             these voices deafening

D|---------------------------------|---------------------------------|----------|
A|---------------------------------|---------------------------------|----------|
F|---------------------------------|---------------------------------|----------|
C|-1-0-0-1-0-0-----1-0-0-1-0-0-----|-5-4-4-5-4-4-----7-7-----7-7-----|-7-7------|
G|-1-0-0-1-0-0-3---1-0-0-1-0-0-3---|-5-4-4-5-4-4-5---7-7-----7-7-----|-7-7------|
C|-1-0-0-1-0-0---0-1-0-0-1-0-0---0-|-5-4-4-5-4-4---0-7-7-----7-7-----|-7-7------|
       Feels like I'm running out of time I need to  *KILL   THE       SOUND!*

Pre-Chorus

D|---------------------------------|---------------------------------|
A|---------------------------------|---------------------------------|
F|---------------------------------|---------------------------------|
C|---2-2-2-2-2-2-2-0-0-0-0-0-0-0-0-|-5-5-5-5-5-5-5-5-3-3-3-3-3-3-3-3-|
G|---2-2-2-2-2-2-2-0-0-0-0-0-0-0-0-|-5-5-5-5-5-5-5-5-3-3-3-3-3-3-3-3-|
C|---2-2-2-2-2-2-2-0-0-0-0-0-0-0-0-|-5-5-5-5-5-5-5-5-3-3-3-3-3-3-3-3-|
   Way     down    Nevermore sound   simple scare will take you down

D|---------------------------------|---------------------------------|
A|---------------------------------|---------------------------------|
F|---------------------------------|---------------------------------|
C|---2-2-2-2-2-2-2-0-0-0-0-0-0-0-0-|-5-5-5-5-5-5-5-5-3-3-3-3-3-3-3-3-|
G|---2-2-2-2-2-2-2-0-0-0-0-0-0-0-0-|-5-5-5-5-5-5-5-5-3-3-3-3-3-3-3-3-|
C|---2-2-2-2-2-2-2-0-0-0-0-0-0-0-0-|-5-5-5-5-5-5-5-5-3-3-3-3-3-3-3-3-|
           See yourself    inside      suffering

D|---------------------------------|---------------------------------|
A|---------------------------------|---------------------------------|
F|---------------------------------|---------------------------------|
C|---2-2-2-2-2-2-2-0-0-0-0-0-0-0-0-|-5-5-5-5-5-5-5-5-3-3-3-3-3-3-3-3-|
G|---2-2-2-2-2-2-2-0-0-0-0-0-0-0-0-|-5-5-5-5-5-5-5-5-3-3-3-3-3-3-3-3-|
C|---2-2-2-2-2-2-2-0-0-0-0-0-0-0-0-|-5-5-5-5-5-5-5-5-3-3-3-3-3-3-3-3-|
 reject        project     low       take it slow    down it goes

D|---------------------------------|---------------------------------|----------|
A|---------------------------------|---------------------------------|----------|
F|---------------------------------|---------------------------------|----------|
C|---2-2-2-2-2-2-2-0-0-0-0-0-0-0-0-|-5-5-5-5-5-5-5-5-3-3-----3-3-----|-2--\-----|
G|---2-2-2-2-2-2-2-0-0-0-0-0-0-0-0-|-5-5-5-5-5-5-5-5-3-3-----3-3-----|-2--\-----|
C|---2-2-2-2-2-2-2-0-0-0-0-0-0-0-0-|-5-5-5-5-5-5-5-5-3-3-----3-3-----|-2--\-----|
         Don't save yourself   we'll set you free   *KILL    THE       SOUND!*

Chorus

D|---------------------------------|---------------------------------|
A|---------------------------------|---------------------------------|
F|---------------------------------|---------------------------------|
C|-1-0-0-1-0-0-----1-0-0-1-0-0-----|-5-4-4-5-4-4-----8-7-7-8-7-7-----|
G|-1-0-0-1-0-0-3---1-0-0-1-0-0-3---|-5-4-4-5-4-4-5---8-7-7-8-7-7-10--|
C|-1-0-0-1-0-0---0-1-0-0-1-0-0---0-|-5-4-4-5-4-4---0-8-7-7-8-7-7---0-|
       Two voices in my head             And I want one of them dead

D|---------------------------------|---------------------------------|
A|---------------------------------|---------------------------------|
F|---------------------------------|---------------------------------|
C|-1-0-0-1-0-0-----1-0-0-1-0-0-----|-5-4-4-5-4-4-----8-7-7-8-7-7-----|
G|-1-0-0-1-0-0-3---1-0-0-1-0-0-3---|-5-4-4-5-4-4-5---8-7-7-8-7-7-10--|
C|-1-0-0-1-0-0---0-1-0-0-1-0-0---0-|-5-4-4-5-4-4---0-8-7-7-8-7-7---0-|
       So  I  can  focus  on  remembering the words you said    *KILL THE SOUND!*

D|---------------------------------|---------------------------------|
A|---------------------------------|---------------------------------|
F|---------------------------------|---------------------------------|
C|-1-0-0-1-0-0-----1-0-0-1-0-0-----|-5-4-4-5-4-4-----8-7-7-8-7-7-----|
G|-1-0-0-1-0-0-3---1-0-0-1-0-0-3---|-5-4-4-5-4-4-5---8-7-7-8-7-7-0---|
C|-1-0-0-1-0-0---0-1-0-0-1-0-0---0-|-5-4-4-5-4-4---0-8-7-7-8-7-7---0-|
       Foundations trembling             these voices deafening

D|---------------------------------|---------------------------------|
A|---------------------------------|---------------------------------|
F|---------------------------------|---------------------------------|
C|-1-0-0-1-0-0-----1-0-0-1-0-0-----|-5-4-4-5-4-4-4-4-----------------|
G|-1-0-0-1-0-0-3---1-0-0-1-0-0-3---|-5-4-4-5-4-4-4-4-----------------|
C|-1-0-0-1-0-0---0-1-0-0-1-0-0---0-|-5-4-4-5-4-4-4-4-----------------|
       Feels like I'm running out of time I need to  *KILL   THE       SOUND!*

Pre-Chorus

D|---------------------------------|---------------------------------|
A|---------------------------------|---------------------------------|
F|---------------------------------|---------------------------------|
C|---2-2-2-2-2-2-2-0-0-0-0-0-0-0-0-|-5-5-5-5-5-5-5-5-3-3-3-3-3-3-3-3-|
G|---2-2-2-2-2-2-2-0-0-0-0-0-0-0-0-|-5-5-5-5-5-5-5-5-3-3-3-3-3-3-3-3-|
C|---2-2-2-2-2-2-2-0-0-0-0-0-0-0-0-|-5-5-5-5-5-5-5-5-3-3-3-3-3-3-3-3-|
   Way     down    deal    now I     gasp        in  page  you know

D|---------------------------------|---------------------------------|
A|---------------------------------|---------------------------------|
F|---------------------------------|---------------------------------|
C|---2-2-2-2-2-2-2-0-0-0-0-0-0-0-0-|-5-5-5-5-5-5-5-5-3-3-3-3-3-3-3-3-|
G|---2-2-2-2-2-2-2-0-0-0-0-0-0-0-0-|-5-5-5-5-5-5-5-5-3-3-3-3-3-3-3-3-|
C|---2-2-2-2-2-2-2-0-0-0-0-0-0-0-0-|-5-5-5-5-5-5-5-5-3-3-3-3-3-3-3-3-|
           You can make it all       better

D|---------------------------------|---------------------------------|
A|---------------------------------|---------------------------------|
F|---------------------------------|---------------------------------|
C|---2-2-2-2-2-2-2-0-0-0-0-0-0-0-0-|-5-5-5-5-5-5-5-5-3-3-3-3-3-3-3-3-|
G|---2-2-2-2-2-2-2-0-0-0-0-0-0-0-0-|-5-5-5-5-5-5-5-5-3-3-3-3-3-3-3-3-|
C|---2-2-2-2-2-2-2-0-0-0-0-0-0-0-0-|-5-5-5-5-5-5-5-5-3-3-3-3-3-3-3-3-|
 infect        affect      now       make it slow    let it  go
   
D|---------------------------------|---------------------------------|----------|
A|---------------------------------|---------------------------------|----------|
F|---------------------------------|---------------------------------|----------|
C|---2-2-2-2-2-2-2-0-0-0-0-0-0-0-0-|-5-5-5-5-5-5-5-5-3-3-----3-3-----|-2--\-----|
G|---2-2-2-2-2-2-2-0-0-0-0-0-0-0-0-|-5-5-5-5-5-5-5-5-3-3-----3-3-----|-2--\-----|
C|---2-2-2-2-2-2-2-0-0-0-0-0-0-0-0-|-5-5-5-5-5-5-5-5-3-3-----3-3-----|-2--\-----|
    Don't save yourself    we'll     set you free    *KILL   THE       SOUND!*

Chorus

D|---------------------------------|---------------------------------|
A|---------------------------------|---------------------------------|
F|---------------------------------|---------------------------------|
C|-1-0-0-1-0-0-----1-0-0-1-0-0-----|-5-4-4-5-4-4-----8-7-7-8-7-7-----|
G|-1-0-0-1-0-0-3---1-0-0-1-0-0-3---|-5-4-4-5-4-4-5---8-7-7-8-7-7-10--|
C|-1-0-0-1-0-0---0-1-0-0-1-0-0---0-|-5-4-4-5-4-4---0-8-7-7-8-7-7---0-|
       Two voices in my head             And I want one of them dead

D|---------------------------------|---------------------------------|
A|---------------------------------|---------------------------------|
F|---------------------------------|---------------------------------|
C|-1-0-0-1-0-0-----1-0-0-1-0-0-----|-5-4-4-5-4-4-----8-7-7-8-7-7-----|
G|-1-0-0-1-0-0-3---1-0-0-1-0-0-3---|-5-4-4-5-4-4-5---8-7-7-8-7-7-0---|
C|-1-0-0-1-0-0---0-1-0-0-1-0-0---0-|-5-4-4-5-4-4---0-8-7-7-8-7-7---0-|
       So  I  can  focus  on  remembering the words you said    *KILL THE SOUND!*

D|---------------------------------|---------------------------------|
A|---------------------------------|---------------------------------|
F|---------------------------------|---------------------------------|
C|-1-0-0-1-0-0-----1-0-0-1-0-0-----|-5-4-4-5-4-4-----8-7-7-8-7-7-----|
G|-1-0-0-1-0-0-3---1-0-0-1-0-0-3---|-5-4-4-5-4-4-5---8-7-7-8-7-7-10--|
C|-1-0-0-1-0-0---0-1-0-0-1-0-0---0-|-5-4-4-5-4-4---0-8-7-7-8-7-7---0-|
       Foundations trembling             these voices deafening

D|---------------------------------|---------------------------------|
A|---------------------------------|---------------------------------|
F|---------------------------------|---------------------------------|
C|-1-0-0-1-0-0-----1-0-0-1-0-0-----|-5-4-4-5-4-4-4-4-----------------|
G|-1-0-0-1-0-0-3---1-0-0-1-0-0-3---|-5-4-4-5-4-4-4-4-----------------|
C|-1-0-0-1-0-0---0-1-0-0-1-0-0---0-|-5-4-4-5-4-4-4-4-----------------|
       Feels like I'm running out of time I need to  *KILL   THE       SOUND!*

Verse

D|---------------------------------|---------------------------------|
A|---------------------------------|---------------------------------|
F|---------------------------------|---------------------------------|
C|-5---5---5---5---8---8---8---8---|-0---0---0---0---3---3---3---3---|
G|-5---5---5---5---8---8---8---8---|-0---0---0---0---3---3---3---3---|
C|-5---5---5---5---8---8---8---8---|-0---0---0---0---3---3---3---3---|
       I'm trying  not   to     drown            beneath     the


D|---------------------------------|---------------------------------|
A|---------------------------------|---------------------------------|
F|---------------------------------|---------------------------------|
C|-5---5---5---5---8---8---8---8---|-0---0---0---0---x-x-x-x-x-x-x-x-|
G|-5---5---5---5---8---8---8---8---|-0---0---0---0---x-x-x-x-x-x-x-x-|
C|-5---5---5---5---8---8---8---8---|-0---0---0---0---x-x-x-x-x-x-x-x-|
sound  but it's  taking         over

D|---------------------------------|---------------------------------|
A|---------------------------------|---------------------------------|
F|---------------------------------|---------------------------------|
C|-5---5---5---5---8---8---8---8---|-0---0---0---0---3---3---3---3---|
G|-5---5---5---5---8---8---8---8---|-0---0---0---0---3---3---3---3---|
C|-5---5---5---5---8---8---8---8---|-0---0---0---0---3---3---3---3---|
       I've tried to shut  it    down    but it grows ever       loud

D|---------------------------------|---------------------------------|
A|---------------------------------|---------------------------------|
F|---------------------------------|---------------------------------|
C|-5---5---5---5---8---8---8---8---|-0---------------\---------------|
G|-5---5---5---5---8---8---8---8---|-0---------------\---------------|
C|-5---5---5---5---8---8---8---8---|-0---------------\---------------|

Big Drums! :D
(4 measures 7/8,
 3 measures 4/4,
 1 measure  6/8)
Way down, take it down, simple scare will take you down
Infect, protect, make it slow

Pre-chorus (Palm muted - I'm not sure about this part, but this is how I play it)

D|---------------------------------|---------------------------------
A|---------------------------------|---------------------------------|
F|---------------------------------|---------------------------------|  
C|---------------------------------|---------------------------------|  x3
G|---4-4-4-4-4-4-4-----------------|---------------------------------|
C|-----------------6-6-6-6-6-6-6-6-|-2-2-2-2-2-2-2-2-4-4-4-4-4-4-4-4-|
   Way     down    take it down      simple scare won't take you down
   I'm trying                        I'm trying
   Not             to                drown

Chorus
D|---------------------------------|---------------------------------|
A|---------------------------------|---------------------------------|
F|---------------------------------|---------------------------------|
C|-3-2-----------------------------|-7-6-----------------------------|
G|-3-2-------------------------5---|-7-6-------------------------12--|
C|-3-2---------------------------2-|-7-6---------------------------2-|
       Two voices in my head             And I want one of them dead

D|---------------------------------|---------------------------------|
A|---------------------------------|---------------------------------|
F|---------------------------------|---------------------------------|
C|-3-2-----------------------------|-7-6-----------------------------|
G|-3-2-------------------------5---|-7-6-------------------------12--|
C|-3-2---------------------------2-|-7-6---------------------------2-|
       So  I  can  focus  on  remembering the words you said    *KILL THE SOUND!*

D|---------------------------------|---------------------------------|
A|---------------------------------|---------------------------------|
F|---------------------------------|---------------------------------|
C|-3-2-2-3-2-2-----3-2-2-3-2-2-----|-7-6-6-7-6-6-----109-9-109-9-----|
G|-3-2-2-3-2-2-5---3-2-2-3-2-2-5---|-7-6-6-7-6-6-7---109-9-109-9-12--|
C|-3-2-2-3-2-2---2-3-2-2-3-2-2---2-|-7-6-6-7-6-6---2-109-9-109-9---2-|
       Foundations trembling             these voices deafening

D|---------------------------------|---------------------------------|
A|---------------------------------|---------------------------------|
F|---------------------------------|---------------------------------|
C|-3-2-2-3-2-2-----3-2-2-3-2-2-----|-7-6-6-7-6-6---------------------|
G|-3-2-2-3-2-2-5---3-2-2-3-2-2-5---|-7-6-6-7-6-6-7-------------------|
C|-3-2-2-3-2-2---2-3-2-2-3-2-2---2-|-7-6-6-7-6-6---2-----------------|
       Feels like I'm running out of time I need to  *KILL   THE       SOUND!*

D|---------------------------------|---------------------------------|
A|---------------------------------|---------------------------------|
F|---------------------------------|---------------------------------|
C|-1-0-0-1-0-0-----1-0-0-1-0-0-----|-5-4-4-5-4-4-----8-7-7-8-7-7-----|
G|-1-0-0-1-0-0-3---1-0-0-1-0-0-3---|-5-4-4-5-4-4-5---8-7-7-8-7-7-10--|
C|-1-0-0-1-0-0---0-1-0-0-1-0-0---0-|-5-4-4-5-4-4---0-8-7-7-8-7-7---0-|

D|---------------------------------|---------------------------------|
A|---------------------------------|---------------------------------|
F|---------------------------------|---------------------------------|
C|-1-0-0-1-0-0-----1-0-0-1-0-0-----|-5-4-4-5-4-4---------------------|
G|-1-0-0-1-0-0-3---1-0-0-1-0-0-3---|-5-4-4-5-4-4-5-------------------|
C|-1-0-0-1-0-0---0-1-0-0-1-0-0---0-|-5-4-4-5-4-4---0-----------------|
                                                     *KILL   THE

D|---------------------------------|---------------------------------|
A|---------------------------------|---------------------------------|
F|---------------------------------|---------------------------------|
C|-1-0-0-1-0-0-----1-0-0-1-0-0-----|-5-4-4-5-4-4-----8-7-7-8-7-7-----|
G|-1-0-0-1-0-0-3---1-0-0-1-0-0-3---|-5-4-4-5-4-4-5---8-7-7-8-7-7-10--|
C|-1-0-0-1-0-0---0-1-0-0-1-0-0---0-|-5-4-4-5-4-4---0-8-7-7-8-7-7---0-|
   SOOOOOOOOOOOOOOOOOOUUUUUNNNNNNNDDDDDD!*                   *KILL THE

D|---------------------------------|-----------
A|---------------------------------|------------
F|---------------------------------|-------------
C|-1-0-0-1-0-0-----1-0-0-1-0-0-----|-5-4-4-5-4-4--
G|-1-0-0-1-0-0-3---1-0-0-1-0-0-3---|-5-4-4-5-4-4---
C|-1-0-0-1-0-0---0-1-0-0-1-0-0---0-|-5-4-4-5-4-4----
   SOOOOOUUUNNNDDDDDD!*              *KILL   THE
Tap to rate this tab
# A B C D E F G H I J K L M N O P Q R S T U V W X Y Z