Guitaretab - guitar tabs
Song name
# A B C D E F G H I J K L M N O P Q R S T U V W X Y Z

Celtic Frost - A Dying God Coming Into Human Flesh tab

Celtic Frost
A Dying God Coming into Human Flesh

Tabbed By: Jonathan Cullis

The other tabs don't sound right so I made my own along to the video

Tuning: C# (C# F# B E G# C#)

All the bends in the song are 1/4 step bends

Verse (Clean)
C#|---------------------------------------|
G#|---------------------------------------|
E |---------------------------------------|
B |-------------2---------------0---------|
F#|-----------2---------------0-----------|
C#|----2^---0----------2^---3-------------|

Chorus (Distortion)
C#|---------------------------------------|
G#|---------------------------------------|
E |---7/9---9^--9^---7/9---7--------------|
B |---7/9---9^--9^---7/9---7--------------|  X4
F#|---5/7---7^--7^---5/7---5--------------|
C#|---------------------------------------|
[ Tab from: http://www.guitaretab.com/c/celtic-frost/85114.html ]
C#|---------------------------------------|
G#|---------------------------------------|
E |---7--7--7/9---9^--9^---7/9---8--------|
B |---7--7--7/9---9^--9^---7/9---8--------|  X6
F#|---5--5--5/7---7^--7^---5/7---6--------|
C#|---------------------------------------|

During the second verse, the guitar has a backward effect on
but Tom is still playing the same verse

Final Chorus (Distortion) - Speeds up at the end
C#|---------------------------------------|
G#|---------------------------------------|
E |--7--7--7/9--9^--9^--9^--7/9--9--9--8--|
B |--7--7--7/9--9^--9^--9^--7/9--9--9--8--|
F#|--5--5--5/7--7^--7^--7^--5/7--7--7--6--|
C#|---------------------------------------|

Ending (Distortion)
C#|-------------|
G#|-------------|
E |--7--7--7/9--|
B |--7--7--7/9--|
F#|--5--5--5/7--|
C#|-------------|

Related for A Dying God Coming Into Human Flesh tab
×
Best way to learn
"A Dying God Coming Into Human Flesh"