Song name
# A B C D E F G H I J K L M N O P Q R S T U V W X Y Z

Cerebral Ballzy - On The Run tab

-----------------------------------------------------------------------------
                           On the Run - Cerebral Ballzy
-----------------------------------------------------------------------------

Tabbed by: Corey D.
Email: xxda4kxx@aim.com

http://cerebralballzy.com/ - Band Website

--------------------
Tuning:  Standard
--------------------

KEY:

/ - Slide up
\ - Slide Down
x - String mute

INTRO
    C#5  B5   D5   B5  C#5
E|-----------------------------|
B|-----------------------------|
G|---6--\444--/7--\444--6------|
D|---6--\444--/7--\444--6------|  X 23
A|---4--\222--/5--\222--4------|
E|-----------------------------|
    C#5 C#5
E|-----------------------------|
B|-----------------------------|
G|---6---66--------------------|
D|---6---66--------------------|  X 2
A|---4---44--------------------|
E|-----------------------------|

E|-----------------------------|
B|-----------------------------|
G|-----------------------------|
D|-----------------------------|  X 8
A|--4-2-2-2-5-2-2-2-4----------|
E|-----------------------------|


CHORUS
   D5      B5  F#5      B5  A5      B5   A5      B5
E|-----------------------------------------------------|
B|-----------------------------------------------------|
G|--7--x--4-44--11--x--4-44-----x--4-444-----x--4-444--|
D|--7--x--4-44--11--x--4-44--7--x--4-444--7--x--4-444--|  X 3
A|--5--x--2-22---9--x--2-22--7--x--2-222--7--x--2-222--|
E|---------------------------5------------5------------|


VERSE
     G#5     C#m      B5     E5     B5     E5
E|---------14141414------------------------------------------------|
B|---------15151515------------------------------------------------|
G|---------16161616--4444--/9999--\4444--/9999---------------------|
D|--44444--16161616--4444--/9999--\4444--/9999---------------------|  X 4
A|--44444--14141414--2222--/7777--\2222--/7777---------------------|
E|--22222----------------------------------------------------------|


The verse should be strummed quite fast.  
Verse was the hardest part to listen to since there
is a collision of noise that blocks out most of the the guitar.  
I listened closely and this is how the verse should be played.


CHORUS
   D5      B5  F#5      B5  A5      B5   A5      B5
E|-----------------------------------------------------|
B|-----------------------------------------------------|
G|--7--x--4-44--11--x--4-44-----x--4-444-----x--4-444--|
D|--7--x--4-44--11--x--4-44--7--x--4-444--7--x--4-444--|  X 4
A|--5--x--2-22---9--x--2-22--7--x--2-222--7--x--2-222--|
E|---------------------------5------------5------------|


VERSE
     G#5     C#m      B5     E5     B5     E5
E|---------14141414------------------------------------------------|
B|---------15151515------------------------------------------------|
G|---------16161616--4444--/9999--\4444--/9999---------------------|
D|--44444--16161616--4444--/9999--\4444--/9999---------------------|  X 3
A|--44444--14141414--2222--/7777--\2222--/7777---------------------|
E|--22222----------------------------------------------------------|

ENDING
   C#5 B5 D5 B5 C#5
E|----------------------|
B|----------------------|
G|--6--4--7--4--6-------|
D|--6--4--7--4--6-------|  X 4
A|--4--2--5--2--4-------|
E|----------------------|
    Pm Pm Pm Pm Pm

    C#5  B5   D5   B5  C#5
E|-----------------------------|
B|-----------------------------|
G|---6--\444--/7--\444--6------|
D|---6--\444--/7--\444--6------|  X 8
A|---4--\222--/5--\222--4------|
E|-----------------------------|


ENDING CHORD
   F5
E|------|
B|------|
G|------|
D|--3---|
A|--3---|
E|--1---|


Please email me for any corrections, thanks.
Tap to rate this tab
 
# A B C D E F G H I J K L M N O P Q R S T U V W X Y Z