Song name
# A B C D E F G H I J K L M N O P Q R S T U V W X Y Z

Chairlift - Bruises tab

Help us improve GuitareTab! Take a short survey!
this is my first tab.... it took me a long time :)



bass line thoughout the song
     G|--------------------------------------------------------------------|
     D|--------------------------------------------------------------------|
     A|------------10-8-8-8-8-7--------------------------------------------|
     E|--8-8-8-8-8--------------5-5-5-5-7-3-3-3-3-3/7----------------------|

keyboard part for guitars
  00:45
     e|--15~--12-15-12-10--12---------15-12-10--12----------15-------------|
     B|-----------------------10~--10---------------10~--10----13-12~~-----|
     G|--------------------------------------------------------------------|
     D|--------------------------------------------------------------------|
     A|--------------------------------------------------------------------|
     E|--------------------------------------------------------------------|

     e|-----15~--12-15-12-10-12---------------17----15----14---------------|
     B|--10---------------------10~--10-12-13----12----12----15-14-15-17~~-|
     G|--------------------------------------------------------------------|
     D|--------------------------------------------------------------------|
     A|--------------------------------------------------------------------|
     E|--------------------------------------------------------------------|







1:47
     e|--8-8~-(8)------------------------8~-(8)----------------------------|
     B|----------8~-(8)-10-10---10-8~-----------8----------\10---10-8~~----|
     G|-----------------------9-------------------10~--10------9-----------|
     D|--------------------------------------------------------------------|
     A|--------------------------------------------------------------------|
     E|--------------------------------------------------------------------|



im still working on the outro and the part behind the vocals




Related for Bruises tab