Song name
# A B C D E F G H I J K L M N O P Q R S T U V W X Y Z

Chaka Khan - Sweet Thing tab

Help us improve GuitareTab! Take a short survey!
Tablature by: John Barraza

s: slide

+++++++++++++
   VERSE
+++++++++++++

     		          	       Amaj7   Dmaj7   
E:----9--9--7--7--9-|---------------|------------------||
B:----9--9--7--7--9-|---5-s-7-s-5---|----5------7------||
G:------------------|---4-s-6-s-4---|----6------6----.-||   
D:------------------|---------------|----6------7----.-||   
A:------------------|---------------|----7------5------||
E:------------------|---------------|----5-------------||



++++++++++++++++
 CHORUS/BRIDGE
++++++++++++++++

							   
    
E:-------------------|------------|-----------------|
B:-------------------|------------|---5-------------|
G:-------------7--9--|---12--14---|---6-------------|
D:-------------7--9--|---12--14---|---6-------------|
A:----5-6-7--0-------|------------|---7-------------|
E:-------------------|------------|---5-------------|



     		          	        Bbmaj7   Ebmaj7   
E:---10--10--8--8--10-|---------------|------------------||
B:---10--10--8--8--10-|---6-s-8-s-6---|----6------8------||
G:--------------------|---5-s-7-s-5---|----7------7----.-||   
D:--------------------|---------------|----7------8----.-||   
A:--------------------|---------------|----8------6------||
E:--------------------|---------------|----6-------------||


							   
     Dm7   Db7         Cm7   Cdim        Bbmaj7   Ebmaj7        
E:------------------|------------------|-----------------|
B:----6------6------|---4------4-------|---6------8------|
G:----5------4------|---3------2-------|---7------7------|
D:----7------6------|---5------4-------|---7------8------|
A:----5------4------|---3------3-------|---8------6------|
E:------------------|------------------|---6-------------|
Related for Sweet Thing tab