Song name
# A B C D E F G H I J K L M N O P Q R S T U V W X Y Z

Chakuza - Ich Lauf tab

Man spielt Am - C(dabei greift man mit dem kleinen finger die e-Saite im 3. Bund) - G - 
D - Dsus

Also so spiel ich es.

1. Am
--------0----------------|
------1---1-----1--------|
-------------2-----------|    2x
--2----------------------|
-------------------------|
-------------------------|

2. C
--------3----------------|
------1---1-----1--------|
-------------0-----------|    2x
--------------------2----|
--3----------------------|
-------------------------|

3.G
--------3-----------------|
------0---0-----0---------|
-------------0------------|    2x
--------------------------|
--------------------------|
--3-----------------------|

4.D ( Dsus)
--------2h3p2----2------|
------3------3----------|
------------------------|    2x
--0---------------------|
------------------------|
------------------------|


So ich hoffe es passt so.Das ist mein erster Tab also verzeiht wenn es nicht 100% passt.
Ich habe das nach Gehör gemacht.
Wünsche euch dennoch viel Spass mit den "Noten" ;-)
Tap to rate this tab
 
# A B C D E F G H I J K L M N O P Q R S T U V W X Y Z