Song name
# A B C D E F G H I J K L M N O P Q R S T U V W X Y Z

Champion - The Truth tab

Help us improve GuitareTab! Take a short survey!
This song is in standard tuning. Listen to the song for the rhythms; they're easy.

  Intro
E|----------------------------------------------------------------------------|
B|----------------------------------------------------------------------------|
G|----------------------------------------------------------------------------|
D|6-6--6-9-8-4-8-9-8-2-2--2-4-4--4-6-6--6-9-8-4-8-9-8-2-2--2-444444444444-7-6-|
A|4-4--4-7-6-2-6-7-6-0-0--0-2-2--2-4-4--4-7-6-2-6-7-6-0-0--0-222222222222-5-4-|
E|----------------------------------------------------------------------------|

E|--------|----------------------------------------------------------|
B|--------|----------------------------------------------------------|
G|--------|----------------------------------------------------------|
D|6-6-6-7-|66-666-66-666-66-666-999-444-66-666-66-666-66-666-999-444-|
A|4-4-4-5-|44-444-44-444-44-444-777-222-44-444-44-444-44-444-777-222-|
E|--------|----------------------------------------------------------|

E|----0-------0------0--------------------------------------------|
B|-----0-------0------0-------------------------------------------|
G|----------------------------------------------------------------|
D|22-----222-----44-----9-8-4-8-9-8-66-666-66-666-66-666-66-666-7-|
A|00-----000-----22-----7-6-2-6-7-6-44-444-44-444-44-444-44-444-5-|
E|----------------------------------------------------------------|

E|----------------------------------------------------------|
B|----------------------------------------------------------|
G|----------------------------------------------------------|
D|66-666-66-666-66-666-999-444-66-666-66-666-66-666-999-444-|
A|44-444-44-444-44-444-777-222-44-444-44-444-44-444-777-222-|
E|----------------------------------------------------------|

                                                 (3x)
E|----0-------0------0--------------|----------------------------|
B|-----0-------0------0-------------|----------------------------|
G|----------------------------------|----------------------------|
D|22-----222-----44-----9-8-4-8-9-8-|66-666-99-999-22-222-44-444-|
A|00-----000-----22-----7-6-2-6-7-6-|44-444-77-777-00-000-22-222-|
E|----------------------------------|----------------------------|

E|-----------------------------------------------------------------|
B|-----------------------------------------------------------------|
G|-----------------------------------------------------------------|
D|66-666-99-999-22-222-44-444-44-444-44-444-44-444-7-6--6--6--6--6-|
A|44-444-77-777-00-000-22-222-22-222-22-222-22-222-5-4--4--4--4--4-|
E|-----------------------------------------------------------------|

E|----------------------------------------------------------|
B|----------------------------------------------------------|
G|----------------------------------------------------------|
D|66-666-66-666-66-666-999-444-66-666-66-666-66-666-999-444-|
A|44-444-44-444-44-444-777-222-44-444-44-444-44-444-777-222-|
E|----------------------------------------------------------|

                                      Outro
E|----0-------0------0---------------|---------------------------------|
B|-----0-------0------0--------------|---------------------------------|
G|-----------------------------------|---------------------------------|
D|22-----222-----44-----9-8-4-8-9-8--|66666666666666666666666666666666-|
A|00-----000-----22-----7-6-2-6-7-6--|44444444444444444444444444444444-|
E|-----------------------------------|---------------------------------|

E|------------------------------------------|
B|------------------------------------------|
G|------------------------------------------|
D|2-222-22-222-2-222-22-7-6--------99999999-|
A|0-000-00-000-0-000-00-5-4--------77777777-|
E|------------------------------------------|

                   (3x)
E|--------------------------------------------|
B|--------------------------------------------|
G|--------------------------------------------|
D|66666666-999-8-9--2-222-22-222-2-222-22-222-|
A|44444444-777-6-7--0-000-00-000-0-000-00-000-|
E|--------------------------------------------|

E|--------------------------------------------|
B|--------------------------------------------|
G|--------------------------------------------|
D|66666666-999-8-9--2-222-22-222222222222-7-6-|
A|44444444-777-6-7--0-000-00-000000000000-5-4-|
E|--------------------------------------------|
Related for The Truth tab