Song name
# A B C D E F G H I J K L M N O P Q R S T U V W X Y Z

Chancho En Piedra - Viejo Diablo tab

Les dejo este intro de viejo diablo en la presentacion de viņa 2006

e||--4-4-4-4--4-4-4-4--4-4-4-4--2-2-2-2--||
B||--5-5-5-5--4-4-4-4--5-5-5-5--2-2-2-2--||
G||--4-4-4-4--4-4-4-4--4-4-4-4--2-2-2-2--||
D||--------------------------------------||
A||--------------------------------------||
E||--------------------------------------||

e||--9-7---7-9----------------------------||
B||------9-----5-7-9-7-5-------5---5-5/7--||
G||----------------------4h6-6---6--------||
D||---------------------------------------||
A||---------------------------------------||
E||---------------------------------------||

e||--------7--9/11--11-9--------------9--11-9-------------||
B||--7-7h9---------------11-9--9-9h11---------11-9--7-9v--||
G||-------------------------------------------------------||
D||-------------------------------------------------------||
A||-------------------------------------------------------||
E||-------------------------------------------------------||

Espero que les guste y que les sirva de algo
Tap to rate this tab
 
# A B C D E F G H I J K L M N O P Q R S T U V W X Y Z