Song name
# A B C D E F G H I J K L M N O P Q R S T U V W X Y Z

Channing Tatum The Vow - Will You Still Love Me Tomorrow tab

This is my interpretation of the song Leo (Channing Tatum) plays in the vow.


                      C

  ---0---0----0---0----0---0---------------------|
  ---1---1----3---3----1---1---------------------|
  ---0---0----0---0----0---0---------------------|
  -----------------------------------------------|
  -3-----------------------------3---0-----------|
  -----------------------------------------------|

                     Am

  ---0---0----0---0----0---0---------------------|
  ---1---1----3---3----1---1---------------------|
  ---2---2----2---2----2---2---------------------|
  -------------------------------2---0-----------|
  -----------------------------------------------|
  -----------------------------------------------|

              F                           G

  ---1---1----1---1----1------------3---3---0---0h3------|
  ---3---3----1---3----1------------3---3---0---0h3------|
  ---2---2----2---2----2------------0---0---0---0--------|
  -------------------------------------------------------|
  -------------------------------------------------------|
  -------------------------------------------------------|
Tap to rate this tab
# A B C D E F G H I J K L M N O P Q R S T U V W X Y Z