Song name
# A B C D E F G H I J K L M N O P Q R S T U V W X Y Z

Chapman Tracy - Smoke & Ashes tab

#

Date: Thu, 21 Mar 1996 13:38:07 -0500
From: myrajpowell@coastalnet.com (myra j. powell)


Smoke and Ashes

From the album:  New Begining by Tracy Chapman

Transcribed by Jonathan Powell



Chords used:  E major and Asus2



Introduction


  Asus2                                 Asus2
----------0----------0----------0-----------------0----------0---------0----
-------------0----------0----------------------------0----------0---------
---2------------2-----------2--------------2-------------2---------2--------
---2---------------------------------------2----------------------------
----------------------------------------------------------------------
----------------------------------------------------------------------

continued...

     E                                   E
----------0----------0----------0--------------0----------0----------0------
-------------0-----------0-------------------------0---------0------------
-----1----------1------------1-----------1-------------1---------1----------
-----2-----------------------------------2------------------------------
-----2-----------------------------------2------------------------------
----------------------------------------------------------------------

**Through the verses and chorus, just strum the chords.  If you have two
guitars playing at once, one guitar playing the arpeggiation in the intro
sounds cool.**

Verses and Chorus

Play the same chords as in the introduction.

Questions, comments, or corrections are greatly appreciated.  Please send
them to myrajpowell@abaco.coastalnet.com
Tap to rate this tab
 
# A B C D E F G H I J K L M N O P Q R S T U V W X Y Z