Song name
# A B C D E F G H I J K L M N O P Q R S T U V W X Y Z

Chapterhouse - If You Want Me chords

Highlighted       Show chord diagrams
Chapterhouse, one of the great 90s shoegaze bands. This song is off of Whirlpool and is 
incredibly easy to play.

http//www.youtube.com/watch?v=3o5GBSKqPr8 (listen to song for timing)

www.chapterhouse.info/ official website of Chapterhouse

Great band better than MBV and Ride.



E         A
If you want me...Never have to question why

B   E   A
Drift on by...

Tab for little xylophone thing part at beginning:

e|----12----19---17------------------------------------------------------------------|
B|-----------------------------------------------------------------------------------|
G|-----------------------------------------------------------------------------------|
D|-----------------------------------------------------------------------------------|
A|-----------------------------------------------------------------------------------|
E|-----------------------------------------------------------------------------------|


Basically play this pattern for most of the song

e|----0--0------------0-----0-------------------------------------------------------|
B|----0----0----------2-------------------------------------------------------------|
G|----1------1--------2--------2----------------------------------------------------|
D|----2--------2------2------------2------------------------------------------------|
A|----2----------2----0-------------------------------------------------------------|
E|----0------------ --0-------------------------------------------------------------|
Tap to rate this tab
# A B C D E F G H I J K L M N O P Q R S T U V W X Y Z