Guitaretab - guitar tabs
Song name
# A B C D E F G H I J K L M N O P Q R S T U V W X Y Z

Charge - Vaughandrix tab

 Vaughandrix - Charge
				Transcribed by Craig Sartor
				Guitar pro export, GP3 file
				at www.mysongbook.com ASAP.                                   


Track 1
                                                                               
E||-------0------------------|------------------------|-----------------------|
B||-------0------------------|------------------------|-----------------2--5--|
G||--------------------------|------------------------|--4--6--4--------------|
D||--------------------------|------------2--4-----6--|-----------------------|
A||---------------------2----|------2--4--------0-----|-----------------------|
E||--0---------0--2--4-------|------------------------|-----------------------|


                                                        
--------------------------|----------------------------|
--2-----------------------|----------------------------|
-----4--1-----------------|-----------------------4--6-|
-----------4--2-----2--4--|--6--4--2-----2--4--6-------|
-----------------4-----2--|-----------4----------------|
-----------------------0--|----------------------------|


                                                                         
-------------------------|---------5----------|-------------------------|
---------------5--7------|--9------5----------|-------------------------|
---4-----4--6-----4------|--6------7----------|--6--7--6--4--6----------|
------6-----------4------|--6------7----------|--7--7--7--7--7-------4--|
------------------0------|--0------5----------|--0--------0-----4-------|
-------------------------|--------------------|-------------------------|


                                                           
---------------------------------|------------------------|
-----------------------7----5--7-|---5-------5---------4--|
-----4--6--4-----4--6------------|------6----4---------4--|
--6-----------6------------------|-----------2---------4--|
---------------------------------|----------------2----2--|
---------------------------------|------------------------|

[ Tab from: http://www.guitaretab.com/c/charge/54671.html ]
                                                                              
----------------------|-------------------------|-------------------7-----7--|
----------------------|-------------------------|----------------------------|
----------------------|-------------------------|-----4--6--4----------4-----|
--------9----------9--|-----------7-------------|--------------6-------------|
----------------9-----|--9-----7-----7-------4--|--6-------------------------|
-------------7--------|-----5-----------4-------|----------------------------|


                                                                    
----------------------|---------4---------4--|---------7--------7--|
----4----7---------6--|---------4---------5--|---------9--------9--|
---------6---------6--|---------6---------6--|---------9--------9--|
---------4---------4--|---------4---------6--|---------9--------9--|
---------4----4----4--|----4----4----4----4--|----4----7--------7--|
----------------------|----------------------|---------7--------7--|


                                                                           
------7-----7--7------|----10------10--10--10--10--|--------------10--10--|
------9--------9------|----10------10--10--10--10--|--------------10--10--|
------9-----9--9------|----11------11--x---11--x---|--------------11--11--|
------9--9--9--9------|----12------12--12--12--12--|--------------12--12--|
------7--7--7--7------|----12------12--12--12--12--|--------------12--12--|
------7--7--7--7------|----10------10--10--10--10--|--------------10--10--|


                                                                         
------9-------9-------------|--------7----7----7----|--0----------------|
------9-------9-------------|--------7----7----7----|--0----------------|
------9-------9---9h-11p-9--|--------8----9----8----|--6----------------|
------9-------9-------------|--11----9----9----9----|--7----------------|
------11------11------------|-----------------------|--7----------------|
------9-------9-------------|-----------------------|-------------------|


                                                                   
-----------------------|-------------------|----------------------|
-----------------------|-------------------|----------------------|
-----------------------|--9----------------|----------------------|
--6--7--6----7----9----|-------------------|--6--7--6----6--------|
--0-----0--------------|-------------------|--0-----0----7--------|
-----------------------|-------------------|----------------------|


                       
---------------------||
---------------------||
---------------------||
--6------------------||
--7--9---------------||
--------0------------||
Vaughandrix chords by Charge