Guitaretab - guitar tabs
Song name
# A B C D E F G H I J K L M N O P Q R S T U V W X Y Z

Charles Mingus - Moanin tab

Artist: Charles Mingus
Title : Moanin
Album : Blues and Roots (1959)

Intro
Standard Tuning

E||---------------|---------------|------------------------|----------|
B||---------------|---------------|------------------------|----------|
G||---------------|---------------|-------------7----------|----------| x2
D||----------7----|---------------|----------------7-------|----------|
A||--5------------|---------------|----5--8--5--------8----|----------|
E||---------------|--6------------|------------------------|--6-------|

[ Tab from: http://www.guitaretab.com/c/charles-mingus/333883.html ]
|---------------|-------------------|-----------------|---------------------|
|---------------|-------------------|-----------------|---------------------|
|---------------|-------------------|-----------------|------------------7--|
|------3--5-----|-----------3--5----|----------3--5---|-----------3--5------|
|--5------------|---5--5--5------5--|--L-5--5---------|--5--5--5-------5----|
|---------------|-------------------|-----------------|---------------------|


|-------------------------|-------------------------|-----------------------|
|-------------------------|-------------------------|-----------------------|
|--L----5--------------7--|--L----5--------------7--|--L----5--7---L--5--7--|
|----------7--5-----------|----------7--5-----------|-----------------------|
|----------------8--5-----|----------------8--5-----|-----------------------|
|-------------------------|-------------------------|-----------------------|


       
|-----------------------|
|-----------------------|
|--L----5--7--L----5----|
|-----------------------|
|-----------------------|
|-----------------------|
Related for Moanin tab
Moanin chords by Charles Mingus