Song name
# A B C D E F G H I J K L M N O P Q R S T U V W X Y Z

Charley Patton - A Spoonful Blues tab

-----------------------------------------------------------------------------
                      A SPOONFUL BLUES - Charley Patton
-----------------------------------------------------------------------------
Tabbed by:refewz

Tuning:Open D (DADF#AD)
This is a basic layout for this song. Listen to the recording to get the
exact timing. Play with a slide.

D |-/14-/14-/13-|---/11---11-------|-----11-----/9---|-/7-----/4--------|
A |-/14-/14-/13-|---/11---11-------|-----11-----/9---|-/7-----/4--------|
F#|-------------|o-----------------|-----------------|------------------|
D |-------------|o------11------11-|-----11--------9-|------7--------4--|
A |-------------|------------------|-----------------|------------------|
D |-------------|----11-----11-----|-11------11------|--7--------4------|

D |----/4------/7---|-/9-----9--------|-------9-9----|-9------/5~----2--|
A |----/4------/7---|-/9-----9--------|--------------|------------------|
F#|-----------------|-----------------|--------------|------------------|
D |-----4--------7--|------9-------9--|----9------9--|-----9-------5----|
A |-----------------|-----------------|--------------|------------------|
D |-4-------4-------|--9-------9------|-9-----9------|-9-------5--------|

D |---/14------14-----14-|----/14--/14--/13---|
A |-------------------14-|----/14--/14--/13---|
F#|----------------------|-------------------o|
D |-------14-------14----|-----14--------13--o|
A |----------------------|--------------------|
D |-2----------14--------|-14-------14--------|
Tap to rate this tab
 
# A B C D E F G H I J K L M N O P Q R S T U V W X Y Z