Guitaretab - guitar tabs
Song name
# A B C D E F G H I J K L M N O P Q R S T U V W X Y Z

Charlie Hall - You Are God tab

[Intro]
E|---15-14------12--------------------------|
B|---------15------15-12---13-12-15---13-12-|
G|-12---------------------------------------|
D|------------------------------------------|
A|------------------------------------------|
E|------------------------------------------|


Play [Intro] after verse 1

play [Intro] during verse 2

Play [Intro] between verse and chorus

Play [Intro] during chorus

[ Tab from: http://www.guitaretab.com/c/charlie-hall/190286.html ]
[Bridge]
E|-------------------------|
B|-------------15-15-15----|
G|-12s11-11s12----------12-|
D|-------------------------|
A|-------------------------|
E|-------------------------| repeat

then at the end of bridge

E|----------------------|
B|-------------15-15-15-|
G|-12s11-11s12----------|
D|----------------------|
A|----------------------|
E|----------------------|

Play [Intro] during last chorus

The End
Related for You Are God tab