Song name
# A B C D E F G H I J K L M N O P Q R S T U V W X Y Z

Charly Garcia - De Mi tab

DE MI
>Charly Garca
--**--**--**--

Tabbed by: charlyghost!
mail::> charlyghost@hotmail.com

[2*14*2002 ** valentin's day!]

-------------------------------------------------------------------------
NOTA: ESTA ES UNA CANCIN + DE CHARLY, DIGAMOS Q NO ES LA MEJOR PERO ES
BASTANTE ENTRETENIDA Y FACIL PARA TOCAR.
-------------------------------------------------------------------------

Intro:
								    G

e-|----------77--7--7----------55---5-5----------33---3-3-----------3--||
b-|---3h5p3-3---3-3-----1h3p1-1----1-1----0h1p0-0----0-0------3-1---0--||
g-|-----------------------------------------------------------------0--||
D-|-----------------------------------------------------------------0--||
A-|-----------------------------------------------------------------2--||
E-|-----------------------------------------------------------------3--||

ref:
h --> hammer on
p --> pull off


-------------------------------------------------------------------------

G		    	 	C  G
Cuando ests mal, cuando ests so lo
G	       		C      Bb9(sin3)
Cuando ya ests cansado de llorar 
	Em        D
no te olvides de m
        F         C	       G   D*   C/D
porque s que te puedo estimular.

Cuando me mires a los ojos 
y mi mirada est en otro lugar 
o te acerques a m 
porque s que te puedo lastimar.


C		    Bb9(sin3)
No pienses que estoy loco
  Gbic
es slo una manera de actuar
C		   Bb9 (sin3)
no pienses que estoy solo
	A7 			 D7/9+
estoy comunicado con todo lo dems. 

Por eso


Cuando ests mal cuando ests sola
cuando ya ests cansada de llorar
no te olvides de m
porque s que te puedo estimular.

-------------------------------------------------------------------------

CHORDS>

	   ebgDAE
----------|------
G  	  |300023
C  	  |01023x
Bb9/sin3) |x1331x
Em	  |000220
D         |2320xx
F	  |112331
D*	  |1120xx (on fret 10)
C/D	  |1120xx (on fret 8)
Gbic	  |xxx553
A7	  |02020x
D7/9+	  |x6545x


-------------------------------------------------------------------------

**** that's all FOLKS! --- enjoy the music from the best , Charly Garca---
and... SAY NO MORE! --- the constant concept

boludeces y comentarios a>>> 
aGUANTE aRGENTINA!!!

Tap to rate this tab
# A B C D E F G H I J K L M N O P Q R S T U V W X Y Z