Song name
# A B C D E F G H I J K L M N O P Q R S T U V W X Y Z

Chase Coy - Never Change tab

Tabbed by: Josh Andy (: Capo on second fret~ will tab whole song if i get good
reviews so rate this song!! pinky goes on high e string and ring finger goes on B
string. Good luck!!

Email: Jdandyxx@hotmail.com

Tuning: Standard

e|----------------------3-------------3---------------3-------------------3-----|
B|--------------3-------------3--------------3------------------3---------------|
G|------------------0--------------0--------------0------------------0----------|
D|------------------------------------------------------------------------------|
A|------3-----------------------------------------------------2-----------------|
E|------------------------------------------------------------------------------|

e|----------------------3-------------3-------------3---------------3--------|
B|-------------3-------------3--------------3------------3-------------------|
G|-----------------0-------------0--------------0-------------0--------------|
D|---------------------------------------------------------------------------|
A|-----0---------------------------------------------------------------------|
E|---------------------------------------------------------------------------|

e|---------------------3-------------3------------------3--------------3-----|
B|-------------3------------3-------------------3-------------3--------------|
G|-----------------0-------------0------------------0--------------0---------|
D|------3----------------------------------2---------------------------------|
A|---------------------------------------------------------------------------|
E|---------------------------------------------------------------------------|

e|---------------------1-------------1------------1------------1----------------|
B|-------------3-------------3------------3------------3------------------------|
G|-----------------0-------------0------------0------------0--------------------|
D|------0-----------------------------------------------------------------------|
A|------------------------------------------------------------------------------|
E|------------------------------------------------------------------------------|


| /  slide up
| \  slide down
| h  hammer-on
| p  pull-off
| ~  vibrato
| +  harmonic
| x  Mute note
Tap to rate this tab
 
# A B C D E F G H I J K L M N O P Q R S T U V W X Y Z