Song name
# A B C D E F G H I J K L M N O P Q R S T U V W X Y Z

Chase Coy - Closer tab

This is an amazing song off of Chase Coy's new album "Picturesque", be sure to get it.

This song has a lot more going on than just guitar. Fiddle, if I'm not mistaken, is in 
also, along with other instruments.

This tab is the basic rhythm Chase plays on his guitar. There's a little "solo" picking 
does at the end of this a few times throughout the song, but I can't figure it out. I'm 
this up in the hopes someone can help me finish it.

P=pinch

Capo'd 3, all tabs relative to capo.
Repeat 4 times
e|--------------------------------------|
B|--------------------------------------|
G|--------------------------------------|
D|---0-0-0-0-0-0-0-0--0-0-0-0-0-0-0-0-0-|
A|0h2-2-0-0----------0h2-2-0-0----------|
E|----------3-3-3-3------------3-3-3-3--|

Play once after you play the above
e|------------------------------------------------|
B|------------------------------------------------|
G|------------------------------------------------|
D|---0-0-0-0-0-0-0-0--0-0-0-0-0-0-0-0-0-0-0-0-0-0-|
A|0h2-2-0-0----------0h2-2-0-0--------------------|
E|----------3-3-3-3------------3-3-3-3-5-5-5-5--5-|
                                                P
Tap to rate this tab
 
# A B C D E F G H I J K L M N O P Q R S T U V W X Y Z