Song name
# A B C D E F G H I J K L M N O P Q R S T U V W X Y Z

Chavela Vargas - Paloma Negra tab

INTRO Guitarra 1 y 2

         D                       D7           G
E|--2-1-1/2-2--1-2---5-4-4/5-5--4-5---10-10--8-7--6-7--------|
B|--3-2-2/3-3--2-3---7-6-6/7-7--6-7---12-12-10-8--7-8--------|
G|----------------------------------------------------7---0--|
D|------------------------------------------------------9----|
A|-----------------------------------------------------------|
E|-----------------------------------------------------------|

               D          A7        D
E |--7/10---9--10----7-5--9---7-5-3-2------2-----2-----2------|
B |--8/12--10--12----8-7-10---8-7-5-3-------------------------|
G |--------------------------------------2-----2-----2--------|
D |------------------------------------4-----3-----2-----0----|
A |-----------------------------------------------------------|
E |-----------------------------------------------------------|

D               A7
Ya me canso de llorar
        D
y no amanece

Ya no se si maldecirte
           A7
O por ti rezar

Tengo miedo de buscarte

Y de encontrarte

Donde me aseguran mis amigos
      D
Que te vas
                       A7
Hay momentos en que quisiera
      D
Mejor rajarme
                    D7
Y arrancarme ya los clavos
      G
De mi penar
                       A7
Pero mis ojos se mueren
             D
Sin mirar tus ojos
    A7
Y mi cariño con la aurora
             D
Te vuelve a esperar


Ya agarraste por tu cuenta la parranda

                                         A7
Paloma negra, paloma negra, donde donde andarás

Ya no juegues con mi honra parrandera
                                          D
Si tus caricias han de ser mías, de nadie más.

Y aunque te amo con locura ya no vuelvas
                        D7         G
Paloma negra, eres la reja de un penar
                                 A7          D
Quiero ser libre, vivir mi vida con quien yo quiera
        A7                                        D
Dios dame fuerza que me estoy muriendo por irla a buscar

Ya agarraste por tu cuenta las parrandas.

                    A7   D
E |--2-3-5-7--9-10----9-10------------------|
B |--3-5-7-8-10--7---10--7------------------|
G |-----------------------------------------|
D |-----------------------------------------|
A |-----------------------------------------|
E |-----------------------------------------|


________________________________________________

Open to change suggestions
Tap to rate this tab
# A B C D E F G H I J K L M N O P Q R S T U V W X Y Z