Song name
# A B C D E F G H I J K L M N O P Q R S T U V W X Y Z

Chazz Valentine - The Brightest Star tab

Artist: Chazz Valentine Solo
Song: The Brighest Star

Tab by Morris Du. (M0rRiz)


Intro
E|--------------------------|    |---------------------------------------|
B|--------------------------|    |---------------------------------------|
G|-5-55-----55--5-55-----55-|    |---------------5-555----------5-555--5-|
D|-5-55-5xx-55--5-55-3xx-55-|(x2)|-7-77-5-55-333-5-555-3-33-555-5-555--5-|
A|-3-33-5xx-33--3-33-3xx-33-|    |-7-77-5-55-333-3-333-3-33-555-3-333--3-|
E|--------------------------|    |-5-55-3-33-111-------1-11-333----------|

Verse
E|-----------------------------------------------------------------|
B|-----------------------------------------------------------------|
G|-5-55-----55--5-55-----55----------------5-555----------5-555--5-|
D|-5-55-5xx-55--5-55-3xx-55--7-77-5-55-333-5-555-3-33-555-5-555--5-|(x2)
A|-3-33-5xx-33--3-33-3xx-33--7-77-5-55-333-3-333-3-33-555-3-333--3-|
E|---------------------------5-55-3-33-111-------1-11-333----------|

Chorus
E|--------------------------------------------------------------|
B|--------------------------------------------------------------|
G|---------5-55555-------------------------5-55555--------------|
D|-3-33333-5-55555-5-55555-7-77777-3-33333-5-55555-555555555555-|
A|-3-33333-3-33333-5-55555-7-77777-3-33333-3-33333-555555555555-|
E|-1-11111---------3-33333-5-55555-1-11111---------333333333333-|

Solo
E|-------------------------------------------------------------------------------|
B|-------------------------------------------------------------------------------|
G|-----------------------------------------------------------------------------5-|
D|------------------------------------3-22-7777-5555-333-2------------32---555-5-|
A|-2/3-33-2/3-333-------2/3-33-2/3-33----------------------350-2/3-33---53-----3-|
E|---------------33-333----------------------------------------------------------|

Verse
E|-----------------------------------------------------------------|
B|-----------------------------------------------------------------|
G|-5-55-----55--5-55-----55----------------5-555----------5-555--5-|
D|-5-55-5xx-55--5-55-3xx-55--7-77-5-55-333-5-555-3-33-555-5-555--5-|(x2)
A|-3-33-5xx-33--3-33-3xx-33--7-77-5-55-333-3-333-3-33-555-3-333--3-|
E|---------------------------5-55-3-33-111-------1-11-333----------|

Chorus
E|--------------------------------------------------------------|
B|--------------------------------------------------------------|
G|---------5-55555-------------------------5-55555--------------|
D|-3-33333-5-55555-5-55555-7-77777-3-33333-5-55555-555555555555-|(x2)
A|-3-33333-3-33333-5-55555-7-77777-3-33333-3-33333-555555555555-|
E|-1-11111---------3-33333-5-55555-1-11111---------333333333333-|

Solo
E|---------------------------------------------------------------------------------|
B|---------------------------------------------------------------------------------|
G|---------------------------------------------------------------------------------|
D|------------------------------------3-22-7777-5555-333-2------------32---555-----|
A|-2/3-33-2/3-333-------2/3-33-2/3-33----------------------350-2/3-33---53-----3/0-|
E|---------------33-333------------------------------------------------------------|

Interlude
(Palm Mute)
E|---------------------------------------------------------------------------------|
B|-7777-54-54-4-55-(777)-7777-54-54-4-55-555-9999-7777-5555-7-00-(111)-1111-55-0-1-|
G|---------------------------------------------------------------------------------|
D|---------------------------------------------------------------------------------|
A|---------------------------------------------------------------------------------|
E|---------------------------------------------------------------------------------|

(Slide)

Chorus
E|--------------------------------------------------------------|
B|--------------------------------------------------------------|
G|---------5-55555-------------------------5-55555--------------|
D|-3-33333-5-55555-5-55555-7-77777-3-33333-5-55555-555555555555-|(x5)
A|-3-33333-3-33333-5-55555-7-77777-3-33333-3-33333-555555555555-|
E|-1-11111---------3-33333-5-55555-1-11111---------333333333333-|

http://www.myspace.com/chazzvalentine
Tap to rate this tab
 
# A B C D E F G H I J K L M N O P Q R S T U V W X Y Z