Song name
# A B C D E F G H I J K L M N O P Q R S T U V W X Y Z

Cheap Trick - Big Eyes tab

Big Eyes
Cheap Trick
Written by Rick Nielsen
Album: In Color (1977)


CHORDS
G5 35xxxx
G6 37xxxx
C5 x35xxx
C6 x37xxx

Intro:
e------------------------------------------
B------------------------------------3-----
G----------------0-----0---4------3--------
D------0-------1-----2-------4-------------
A----1-------2-----------------------------
E--2---------------------------------------

Chorus:

A--5----2-----1-2-1-0---------5----2-----1-2-1-0-------
E---------------------3-0------------------------3-0---


Verse: (listen to song to get the timing)
 
G5 G6 G5 G6 G5 G6 G5 G6
It's not the way you look, no no.
It's not the way you walk.

C5 C6 C5 C6 C5 C6 C5 C6 
Your eyes are somethin' good.
You know they're clear and bright, 
It's not the color of your hair.


Chorus:

A--5-------2----1-2-1-0---------5--------2-----1-2-1-0--------
E-----------------------3-0----------------------------3-0---
  Big    Eyes  I keep falling   Big     Eyes  They keep calling
                  for those                       my name


A--5-------2----1-2-1-0----------5-------2-----1-2-1-0--------
E------------------------3-0----------------------------3-0---
  Big     Eyes  I keep falling   Big    Eyes  They keep calling
                   for those                     my name

Verse:

G5 G6 G5 G6 G5 G6 G5 G6
You're such a losin' cause.
Why don't you go get lost?

C5 C6 C5 C6 C5 C6 C5 C6
Who says you write the laws?
You're such a losin' cause, 
Go on get out of here.


Chorus:

A--5-------2----1-2-1-0---------5--------2-----1-2-1-0--------
E-----------------------3-0----------------------------3-0---
  Big    Eyes  I keep falling   Big     Eyes  They keep calling
                  for those                       my name

Bridge:

G-------------------------------------------------------0-------
D--2-1-2-------------------0--------2-1-2-------------1---------
A--------2-3-2-0---------2----------------2-3-2-0---2-----------
E--------------------2-3----------------------------------------

G--------------------------------------------------------------0--
D--2-1-2-------------------0-----2-1-2-----------------0-----1----
A--------2-3-2-0--------2--------------2-3-2-0-------1-----2------
E-------------------2-3----------------------------2--------------


GUITAR SOLO


Verse:
G5 G6 G5 G6 G5 G6 G5 G6
You're such a losin' cause.
Why don't you go get lost?

C5 C6 C5 C6 C5 C6 C5 C6
Who says you write the laws?
Why don't you go get lost?
Go on get out of here.


Play intro 4 times


Outro:

A--5-----2----1-2-1-0----------5-----2-----1-2-1-0--------1-2-1-0-------
E----------------------3-0--------------------------3-0------------3-0--
   Big  Eyes  I keep falling  Big   Eyes  They keep calling
                 for those                     my name

A--5---------2----1-2-1-0--------1-2-1-0--------1-2-1-0---------
E--------------------------3-0------------3-0------------3-0----
   Big      Eyes  I keep falling   
                     for those        

A--5---------2----1-2-1-0----------1-2-1-0--------1-2-1-0----------
E--------------------------3-0--------------3-0-----------3-0----0-
   Big      Eyes  They keep    
                 calling my name  


Big Eyes 

D------------------------------2-----------
A--1-2-1-0--------1-2-1-0------2-----------
E-----------3-0------------3---0-----------
Tap to rate this tab
 
# A B C D E F G H I J K L M N O P Q R S T U V W X Y Z