Song name
# A B C D E F G H I J K L M N O P Q R S T U V W X Y Z

Cheap Trick - I Want You To Want Me tab

This is some of the song i dont have the end 
b=bend
br= bend and release
(=slide up
)=slide down
p=pull off 


--------------------------------2---------------5--
-17---------17---------------3--3--2---------------
-16brp14-16-16br-14-16p14)---0--2--2-------2-4(6---
-----------------------------0--0--2-------2-------
--------------------------------0--0---2(4---------
-----------------------------3---------------------

after you bend the 16 fret pull off to the 14 fret

ok this is the part before he starts to sing

----------------------------------------------------------------------------------------
----------------------------------------------------------------------------------------
----------------------------------------------------------------------------------------
---2---2--------2---2-------------------------------------------------------------------
-0-0-0-0--X11------------4---4--X11----2---2----7---7--X11---7---7----2---2--X11--------
--------------4-4-4-4--2-2-2-2-------0-0-0-0--5-5-5-5------4-4-4-4--0-0-0-0-------------

I want you to want me....
this is all palm muted by the way
sry i only have the rythym guitar for this part


---------------------------------------------------------------------------------
--------------------------10---10----8-------------------------------------------
9b-9b-9br-9-8-7-7br-6-7(9----9----9--10-----7-7-7-7-6---4p2p0--------------------
--------------------------------------------------------------4p2p0-4p2p0--------
---------------------------------------------------------------------------4p2p0-
---------------------------------------------------------------------------------
shine up my old brown shoes....

---------------------------------------------------------------------------
---------------------------------------------------------------------------
---------------------------------------------------------------------------
---2-2-4-4-2-2-4-4--------------------------7-X8---------------------------
---0-0-0-0-0-0-0-0---2-2-4-4-2-2-4-4--4-X8--5------------------------------
---------------------0-0-0-0-0-0-0-0--2------------------------------------
didnt i didnt i see you cryin.....


Solo:
-------------------9-----7------5-----4-----2--------------10-------12-------14
--17---------------10-X3-9--X3--7--X3-5-X3--3--X3-----------------------------
-----16b--X8-14--------------------------------------9(11-----11(12----12(14--
------------------------------------------------------------------------------
------------------------------------------------------------------------------
------------------------------------------------------------------------------


The second part of the solo i dont know but it has the same concept as the first part.
the bending in the second part is higher up in the frets but the rest is the same.

If you have any questions....too bad.
Tap to rate this tab
 
# A B C D E F G H I J K L M N O P Q R S T U V W X Y Z