Cheap Trick - Ghost Town tab

e-3/5-8-5-------------------6-6-6-------5h6---5--5--5----5h6----5-5---------|
b---------6-3/5--3-1----6---6-6-6-------6-----6--6--6----6------6-6---------|
g-------------------2---7-------------------------------------------8/10-8--|
d---------------------------------------------------------------------------|
a---------------------------------------------------------------------------|
E---------------------------------------------------------------------------|

e-------------12-17-----13-12-13-12-13---------------------------------------|
b-------10-13-----------13-13-13-13-13---------------------------------------|
g-----------------------12-12-12-12-12---------------------------------------|
d-10-------------------------------------------------------------------------|
a----12----------------------------------------------------------------------|
E----------------------------------------------------------------------------|
Tap to rate this tab
 
# A B C D E F G H I J K L M N O P Q R S T U V W X Y Z