Song name
# A B C D E F G H I J K L M N O P Q R S T U V W X Y Z

Cheeseheads - In Your Face tab

This song is in normal tuning.  eBGDAE
         INTRO
e|--3-3-3-3--1-1-1-1--0-0-0-0--1-1-1-1----|
B|--1-1-1-1--1-1-1-1--1-1-1-1--1-1-1-1----|
G|----------------------------------------|
D|----------------------------------------|
A|----------------------------------------|
E|----------------------------------------|

             VERSE
e|----------------------------------------|
B|----------------------------------------|
G|----------------------------------------|
D|----6-6-7-7-8-8-7-7----4-4-5-5-6-6-5-5--|
A|---7-7-7-7-7-7-7-7----5-5-5-5-5-5-5-5---|
E|----------------------------------------|

           CHORUS
e|----------------------------------------|
B|----------------------------------------|
G|----------------------------------------|
D|----------------------------------------|
A|---4-4-4-4---9-9-9-9---13-13-13-13---11-|  eleven not ones
E|---2-2-2-2---7-7-7-7---11-11-11-11---9-|

Thats all.
Tap to rate this tab
 
# A B C D E F G H I J K L M N O P Q R S T U V W X Y Z