Song name
# A B C D E F G H I J K L M N O P Q R S T U V W X Y Z

Chester Bennington - Let Down tab

Help us improve GuitareTab! Take a short survey!
Dust & Blood
Let Down
Tabbed by U B the band
Tuning C G C F A D

Legend


Intro: Guitar 1
D|----------------------------------------------------------------------------|
A|----------------------------------------------------------------------------|
F|--------------------------------------10-10-10-10-10-10----7--7--7--7--7--7-|
C|--7--7--7--7--7--7--7--7--7--7--7--7--8--8--8--8--8--8--x--5--5--5--5--5--5-|
G|--7--7--7--7--7--7--7--7--7--7--7--7--8--8--8--8--8--8--x--5--5--5--5--5--5-|
C|--7--7--7--7--7--7--7--7--7--7--7--7--8--8--8--8--8--8--x--5--5--5--5--5--5-|
                                                                              |
Intro: Guitar 2                                                               |
D|----------------------------------------------------------------------------|
A|----------------------------------------------------------------------------|
F|--6--------6--------6--------6--------7--------7-----------7--------7-------|
C|--7--------7--------7--------7--------8--------8-----------5--------5-------|
G|-----------------------------------------------------------5--------5-------|
C|-----------------------------------------------------------5--------5-------|

Intro: Guitar 1
D|----------------------------------------------------------------------------|
A|----------------------------------------------------------------------------|
F|--------------------------------------10-10-10-10-10-10----7--7--7--7--7--7-|
C|--7--7--7--7--7--7--7--7--7--7--7--7--8--8--8--8--8--8--x--5--5--5--5--5--5-|
G|--7--7--7--7--7--7--7--7--7--7--7--7--8--8--8--8--8--8--x--5--5--5--5--5--5-|
C|--7--7--7--7--7--7--7--7--7--7--7--7--8--8--8--8--8--8--x--5--5--5--5--5--5-|
                                                                              |
Intro: Guitar 2                                                               |
D|----------------------------------------------------------------------------|
A|----------------------------------------------------------------------------|
F|--6--------6--------6--------6--------10-------10----------7--------7-------|
C|--7--------7--------7--------7--------8--------8-----------8--------8-------|
G|----------------------------------------------------------------------------|
C|----------------------------------------------------------------------------|

Verse 1: Guitar 1 (play 4 times)
D|----------------------------------------------------------------------------|
A|----------------------------------------------------------------------------|
F|----------------------------------------------------------------------------|
C|--7--7--7--7--7--7--7--7--7--7--7--7--8--8--8--8--8--888--5--5--5--5--5-555-|
G|--7--7--7--7--7--7--7--7--7--7--7--7--8--8--8--8--8--888--5--5--5--5--5-555-|
C|--7--7--7--7--7--7--7--7--7--7--7--7--8--8--8--8--8--888--5--5--5--5--5-555-|

Verse 1: Guitar 1 (play 1 time)
D|----------------------------------------------------------------------------|
A|----------------------------------------------------------------------------|
F|----------------------------------------------------------------------------|
C|--7--7--7--7--7--7--7--7--7--7--7--7--8--8--8--8--8--888--5--5--5--5--5-555-|
G|--7--7--7--7--7--7--7--7--7--7--7--7--8--8--8--8--8--888--5--5--5--5--5-555-|
C|--7--7--7--7--7--7--7--7--7--7--7--7--8--8--8--8--8--888--5--5--5--5--5-555-|
                                                                              |
Verse 1: Guitar 2 (play 1 time)                                               |
D|----------------------------------------------------------------------------|
A|----------------------------------------------------------------------------|
F|--6--6--6--6--6--6--6--6--6--6--6--6--7--7--7--7--7--7----9--9--9--9--9--9--|
C|----------------------------------------------------------------------------|
G|----------------------------------------------------------------------------|
C|----------------------------------------------------------------------------|

Verse 1: Guitar 1 (play 1 time)
D|----------------------------------------------------------------------------|
A|----------------------------------------------------------------------------|
F|----------------------------------------------------------------------------|
C|--7--7--7--7--7--7--7--7--7--7--7--7--8--8--8--8--8--888--5--5--5--5--5-555-|
G|--7--7--7--7--7--7--7--7--7--7--7--7--8--8--8--8--8--888--5--5--5--5--5-555-|
C|--7--7--7--7--7--7--7--7--7--7--7--7--8--8--8--8--8--888--5--5--5--5--5-555-|
                                                                              |
Verse 1: Guitar 2 (play 1 time)                                               |
D|----------------------------------------------------------------------------|
A|----------------------------------------------------------------------------|
F|--12-12-12-12-12-12-12-12-12-12-12-12-10-10-10-10-10-10---9--9--9--9--9--9--|
C|----------------------------------------------------------------------------|
G|----------------------------------------------------------------------------|
C|----------------------------------------------------------------------------|

Verse 1: Guitar 1 (play 1 time)
D|----------------------------------------------------------------------------|
A|----------------------------------------------------------------------------|
F|----------------------------------------------------------------------------|
C|--7--7--7--7--7--7--7--7--7--7--7--7--8--8--8--8--8--888--5--5--5--5--5-555-|
G|--7--7--7--7--7--7--7--7--7--7--7--7--8--8--8--8--8--888--5--5--5--5--5-555-|
C|--7--7--7--7--7--7--7--7--7--7--7--7--8--8--8--8--8--888--5--5--5--5--5-555-|
                                                                              |
Verse 1: Guitar 2 (play 1 time)                                               |
D|----------------------------------------------------------------------------|
A|----------------------------------------------------------------------------|
F|--6--6--6--6--6--6--6--6--6--6--6--6--7--7--7--7--7--7----9--9--9--9--9--9--|
C|----------------------------------------------------------------------------|
G|----------------------------------------------------------------------------|
C|----------------------------------------------------------------------------|

Verse 1: Guitar 1 (play 1 time)
D|----------------------------------------------------------------------------|
A|----------------------------------------------------------------------------|
F|----------------------------------------------------------------------------|
C|--7--7--7--7--7--7--7--7--7--7--7--7--8--8--8--8--8--888--5--5--5--5--5-555-|
G|--7--7--7--7--7--7--7--7--7--7--7--7--8--8--8--8--8--888--5--5--5--5--5-555-|
C|--7--7--7--7--7--7--7--7--7--7--7--7--8--8--8--8--8--888--5--5--5--5--5-555-|
                                                                              |
Verse 1: Guitar 2 (play 1 time)                                               |
D|----------------------------------------------------------------------------|
A|----------------------------------------------------------------------------|
F|--12-12-12-12-12-12-12-12-12-12-12-12-10-10-10-10-10-10---9--9--9--9--9--9--|
C|----------------------------------------------------------------------------|
G|----------------------------------------------------------------------------|
C|----------------------------------------------------------------------------|

Pre Chorus: Guitars 1 & 2
D|----------------------------------------------------------------------------|
A|----------------------------------------------------------------------------|
F|----------------------------------------------------------------------------|
C|----------------------------------------------------------------------------|
G|--0--2-3-3-3-3-3-3-3-3-3-3-3-3--0--2-3-3-3-3-3-3-3-3-3-3-3-3--555555555555--|
C|--0--2-3-3-3-3-3-3-3-3-3-3-3-3--0--2-3-3-3-3-3-3-3-3-3-3-3-3--555555555555--|

Chorus: Guitars 1 & 2 (play 4 times)
D|----------------------------------------------------------------------------|
A|----------------------------------------------------------------------------|
F|----------------------------------------------------------------------------|
C|--0--0--0--0--0--0--0--0--0--0--0--0--8--8--8--8--8--8--7--7--7--7--7--7----|
G|--0--0--0--0--0--0--0--0--0--0--0--0--8--8--8--8--8--8--7--7--7--7--7--7----|
C|--0--0--0--0--0--0--0--0--0--0--0--0--8--8--8--8--8--8--7--7--7--7--7--7----|

Chorus 2: Guitar 1
D|----------------------------------------------------------------------------|
A|----------------------------------------------------------------------------|
F|----------------------------------------------------------------------------|
C|--0--0--0--0--0--0--0--0--0--0--0--0--0--0--0--0--0--0--0--0--0--0--0--0----|
G|--0--0--0--0--0--0--0--0--0--0--0--0--0--0--0--0--0--0--0--0--0--0--0--0----|
C|--0--0--0--0--0--0--0--0--0--0--0--0--0--0--0--0--0--0--0--0--0--0--0--0----|
                                                                              |
Chorus 2: Guitar 2                                                            |
D|----------------------------------------------------------------------------|
A|----------------------------------------------------------------------------|
F|--7--7--7--7--7--7--7--7--7--7--7--7--7--7--7--7--7--7--7--7--7--7--7--7----|
C|--x--x--x--x--x--x--x--x--x--x--x--x--x--x--x--x--x--x--x--x--x--x--x--x----|
G|--5--5--5--5--5--5--5--5--5--5--5--5--5--5--5--5--5--5--5--5--5--5--5--5----|
C|----------------------------------------------------------------------------|

Chorus 2: Guitar 1
D|----------------------------------------------------------------------------|
A|----------------------------------------------------------------------------|
F|----------------------------------------------------------------------------|
C|--3--3--3--3--3--3--3--3--3--3--3--3--5--5--5--5--5--5--5--5--5--5--5--5----|
G|--3--3--3--3--3--3--3--3--3--3--3--3--5--5--5--5--5--5--5--5--5--5--5--5----|
C|--3--3--3--3--3--3--3--3--3--3--3--3--5--5--5--5--5--5--5--5--5--5--5--5----|
                                                                              |
Chorus 2: Guitar 2                                                            |
D|----------------------------------------------------------------------------|
A|----------------------------------------------------------------------------|
F|--10-10-10-10-10-10-10-10-10-10-10-10-12-12-12-12-12-12-12-12-12-12-12-12---|
C|--x--x--x--x--x--x--x--x--x--x--x--x--x--x--x--x--x--x--x--x--x--x--x--x----|
G|--8--8--8--8--8--8--8--8--8--8--8--8--10-10-10-10-10-10-10-10-10-10-10-10---|
C|----------------------------------------------------------------------------|

Post Chorus: Guitars 1 & 2
D|----------------------------------------------------------------------------|
A|----------------------------------------------------------------------------|
F|----------------------------------------------------------------------------|
C|--0----------------0----------------0----------------0----------------------|
G|--0----------------0----------------0----------------0----------------------|
C|--0----------------0----------------0----------------0----------------------|

Verse 2: Guitar 1 (play 4 times)
D|----------------------------------------------------------------------------|
A|----------------------------------------------------------------------------|
F|----------------------------------------------------------------------------|
C|--7--7--7--7--7--7--7--7--7--7--7--7--8--8--8--8--8--888--5--5--5--5--5-555-|
G|--7--7--7--7--7--7--7--7--7--7--7--7--8--8--8--8--8--888--5--5--5--5--5-555-|
C|--7--7--7--7--7--7--7--7--7--7--7--7--8--8--8--8--8--888--5--5--5--5--5-555-|

Verse 2: Guitar 1 (play 1 time)
D|----------------------------------------------------------------------------|
A|----------------------------------------------------------------------------|
F|----------------------------------------------------------------------------|
C|--7--7--7--7--7--7--7--7--7--7--7--7--8--8--8--8--8--888--5--5--5--5--5-555-|
G|--7--7--7--7--7--7--7--7--7--7--7--7--8--8--8--8--8--888--5--5--5--5--5-555-|
C|--7--7--7--7--7--7--7--7--7--7--7--7--8--8--8--8--8--888--5--5--5--5--5-555-|
                                                                              |
Verse 2: Guitar 2 (play 1 time)                                               |
D|----------------------------------------------------------------------------|
A|----------------------------------------------------------------------------|
F|--6--6--6--6--6--6--6--6--6--6--6--6--7--7--7--7--7--7----9--9--9--9--9--9--|
C|----------------------------------------------------------------------------|
G|----------------------------------------------------------------------------|
C|----------------------------------------------------------------------------|

Verse 2: Guitar 1 (play 1 time)
D|----------------------------------------------------------------------------|
A|----------------------------------------------------------------------------|
F|----------------------------------------------------------------------------|
C|--7--7--7--7--7--7--7--7--7--7--7--7--8--8--8--8--8--888--5--5--5--5--5-555-|
G|--7--7--7--7--7--7--7--7--7--7--7--7--8--8--8--8--8--888--5--5--5--5--5-555-|
C|--7--7--7--7--7--7--7--7--7--7--7--7--8--8--8--8--8--888--5--5--5--5--5-555-|
                                                                              |
Verse 2: Guitar 2 (play 1 time)                                               |
D|----------------------------------------------------------------------------|
A|----------------------------------------------------------------------------|
F|--12-12-12-12-12-12-12-12-12-12-12-12-10-10-10-10-10-10---9--9--9--9--9--9--|
C|----------------------------------------------------------------------------|
G|----------------------------------------------------------------------------|
C|----------------------------------------------------------------------------|

Verse 2: Guitar 1 (play 1 time)
D|----------------------------------------------------------------------------|
A|----------------------------------------------------------------------------|
F|----------------------------------------------------------------------------|
C|--7--7--7--7--7--7--7--7--7--7--7--7--8--8--8--8--8--888--5--5--5--5--5-555-|
G|--7--7--7--7--7--7--7--7--7--7--7--7--8--8--8--8--8--888--5--5--5--5--5-555-|
C|--7--7--7--7--7--7--7--7--7--7--7--7--8--8--8--8--8--888--5--5--5--5--5-555-|
                                                                              |
Verse 2: Guitar 2 (play 1 time)                                               |
D|----------------------------------------------------------------------------|
A|----------------------------------------------------------------------------|
F|--6--6--6--6--6--6--6--6--6--6--6--6--7--7--7--7--7--7----9--9--9--9--9--9--|
C|----------------------------------------------------------------------------|
G|----------------------------------------------------------------------------|
C|----------------------------------------------------------------------------|

Verse 2: Guitar 1 (play 1 time)
D|----------------------------------------------------------------------------|
A|----------------------------------------------------------------------------|
F|----------------------------------------------------------------------------|
C|--7--7--7--7--7--7--7--7--7--7--7--7--8--8--8--8--8--888--5--5--5--5--5-555-|
G|--7--7--7--7--7--7--7--7--7--7--7--7--8--8--8--8--8--888--5--5--5--5--5-555-|
C|--7--7--7--7--7--7--7--7--7--7--7--7--8--8--8--8--8--888--5--5--5--5--5-555-|
                                                                              |
Verse 2: Guitar 2 (play 1 time)                                               |
D|----------------------------------------------------------------------------|
A|----------------------------------------------------------------------------|
F|--12-12-12-12-12-12-12-12-12-12-12-12-10-10-10-10-10-10---9--9--9--9--9--9--|
C|----------------------------------------------------------------------------|
G|----------------------------------------------------------------------------|
C|----------------------------------------------------------------------------|

Pre Chorus: Guitars 1 & 2
D|----------------------------------------------------------------------------|
A|----------------------------------------------------------------------------|
F|----------------------------------------------------------------------------|
C|----------------------------------------------------------------------------|
G|--0--2-3-3-3-3-3-3-3-3-3-3-3-3--0--2-3-3-3-3-3-3-3-3-3-3-3-3--555555555555--|
C|--0--2-3-3-3-3-3-3-3-3-3-3-3-3--0--2-3-3-3-3-3-3-3-3-3-3-3-3--555555555555--|

Chorus: Guitars 1 & 2 (play 8 times)
D|----------------------------------------------------------------------------|
A|----------------------------------------------------------------------------|
F|----------------------------------------------------------------------------|
C|--0--0--0--0--0--0--0--0--0--0--0--0--8--8--8--8--8--8--7--7--7--7--7--7----|
G|--0--0--0--0--0--0--0--0--0--0--0--0--8--8--8--8--8--8--7--7--7--7--7--7----|
C|--0--0--0--0--0--0--0--0--0--0--0--0--8--8--8--8--8--8--7--7--7--7--7--7----|


Chorus 2: Guitar 1 (Play Chorus 2 4 Times)
D|----------------------------------------------------------------------------|
A|----------------------------------------------------------------------------|
F|----------------------------------------------------------------------------|
C|--0--0--0--0--0--0--0--0--0--0--0--0--0--0--0--0--0--0--0--0--0--0--0--0----|
G|--0--0--0--0--0--0--0--0--0--0--0--0--0--0--0--0--0--0--0--0--0--0--0--0----|
C|--0--0--0--0--0--0--0--0--0--0--0--0--0--0--0--0--0--0--0--0--0--0--0--0----|
                                                                              |
Chorus 2: Guitar 2                                                            |
D|----------------------------------------------------------------------------|
A|----------------------------------------------------------------------------|
F|--7--7--7--7--7--7--7--7--7--7--7--7--7--7--7--7--7--7--7--7--7--7--7--7----|
C|--x--x--x--x--x--x--x--x--x--x--x--x--x--x--x--x--x--x--x--x--x--x--x--x----|
G|--5--5--5--5--5--5--5--5--5--5--5--5--5--5--5--5--5--5--5--5--5--5--5--5----|
C|----------------------------------------------------------------------------|

Chorus 2: Guitar 1
D|----------------------------------------------------------------------------|
A|----------------------------------------------------------------------------|
F|----------------------------------------------------------------------------|
C|--3--3--3--3--3--3--3--3--3--3--3--3--5--5--5--5--5--5--5--5--5--5--5--5----|
G|--3--3--3--3--3--3--3--3--3--3--3--3--5--5--5--5--5--5--5--5--5--5--5--5----|
C|--3--3--3--3--3--3--3--3--3--3--3--3--5--5--5--5--5--5--5--5--5--5--5--5----|
                                                                              |
Chorus 2: Guitar 2                                                            |
D|----------------------------------------------------------------------------|
A|----------------------------------------------------------------------------|
F|--10-10-10-10-10-10-10-10-10-10-10-10-12-12-12-12-12-12-12-12-12-12-12-12---|
C|--x--x--x--x--x--x--x--x--x--x--x--x--x--x--x--x--x--x--x--x--x--x--x--x----|
G|--8--8--8--8--8--8--8--8--8--8--8--8--10-10-10-10-10-10-10-10-10-10-10-10---|
C|----------------------------------------------------------------------------|

Outro: Guitar 1
D|----------------------------------------------------------------------------|
A|----------------------------------------------------------------------------|
F|----------------------------------------------------------------------------|
C|--0-------------------------------------------------------------------------|
G|--0-------------------------------------------------------------------------|
C|--0-------------------------------------------------------------------------|
                                                                              |
Outro: Guitar 2                                                               |
D|----------------------------------------------------------------------------|
A|----------------------------------------------------------------------------|
F|--7-------------------------------------------------------------------------|
C|--x-------------------------------------------------------------------------|
G|--5-------------------------------------------------------------------------|
C|----------------------------------------------------------------------------|

Finished!
Related for Let Down tab