Song name
# A B C D E F G H I J K L M N O P Q R S T U V W X Y Z

Chet Baker - But Not For Me tab

This is a guitar tab for the trumpet solo on the Gershwin song, BUT NOT FOR ME, by Chet
Baker from the Pacific Jazz recording 'Chet Baker Sings'.  The solo is over one 32 bar
chorus and I broke down each section under A1 and A2 (16 bars each).  I also separated
each phrase with breaks in the tab. I used carrots above glissando notes and placed ghost
notes in parenthesis--these notes are more felt than heard.  The song is recorded in the
key of D flat and I included the chord changes after the tab. Feel free to contact me
through my band, The Young Werewolves. Our website is: www.theyoungwerewolves.com.  I 
hope you enjoy.   -Nick Falcon


A1

   ^                                        ^ ^
e-------------|  -------6-9-8---------------------------4-|
b-6-4-4-6-----|  ----4-6-------6-----4-6---4-6-4----4-6---|
g---------5-3-|  5-6-------------6-6-----6--------6-------|
d-------------|  -----------------------------------------|
a-------------|  -----------------------------------------|
e-------------|  -----------------------------------------|


e-6-9-6------------|
b---------4-5---4--|
g-------6-----6----|
d------------------|
a------------------|
e------------------|


                ^ ^ ^ ^ ^ ^
e-6-9-6--------6-8-6-5-6-8-9-11-13------------------|
b--------4-5-6---------------------16-14------------|
g------6---------------------------------15---------|
d-------------------------------------------15------|
a---------------------------------------------------|
e---------------------------------------------------|


e---------------------------------------------------|
b---------------------------------------------------|
g----------------------------------13-----------13--|
d------------------------------15------15----15-----|
a--16--15--13--12--15--13--16-------------16--------|
e---------------------------------------------------|


A2

e----9-11-8----9-11-8---8-9------8-8-9-9-11-11----------------|
b-11--------11--------9-----11-9---------------9-9--6---6-----|
g----------------------------------------------------6----(3)-|
d-------------------------------------------------------------|
a-------------------------------------------------------------|
e-------------------------------------------------------------|


                      ^
e-------------8-11-9-8-7-9-6-|  --4-6-4-----4-6-4-5-4-------|
b-----------9----------------|  ----------------------7-6---|
g--------10------------------|  --------6-6---------------3-|
d--10-11---------------------|  ----------------------------|
a----------------------------|  ----------------------------|
e----------------------------|  ----------------------------|


              ^ ^                            ^ ^
e------------------------------|  ----------------6---4-----------|
b----------4-5-6-5-4-----------|  ----4-7---4-5-6-------6---4-----|
g--3--5-6------------6-5-3-----|  --5---------------------6---6---|
d--------------------------(5)-|  --------------------------------|
a------------------------------|  --------------------------------|
e------------------------------|  --------------------------------|


e------------------|
b------------6-4---|
g--------3-6-------|
d---(6)------------|
a------------------|
e------------------|



A1

DbMaj7  | Ebm7  Ab7 | DbMaj7  | Bbm7      |

Eb7     | Ebm7  Ab7 | DbMaj7  | Abm7  Db7 |

GbMaj7  | B7        | DbMaj7  | Bbm7      |

Eb7     | Eb7       | Ebm7    | Ab7       |


A2

DbMaj7  | Ebm7  Ab7 | DbMaj7  | Bbm7      |

Eb7     | Ebm7  Ab7 | DbMaj7  | Abm7  Db7 |

GbMaj7  | B7        | DbMaj7  | Fm7b5     |

Ebm7    | Ab7       | DbMaj7  | DbMaj7    |
Tap to rate this tab
# A B C D E F G H I J K L M N O P Q R S T U V W X Y Z