Song name
# A B C D E F G H I J K L M N O P Q R S T U V W X Y Z

Chevelle - Jars tab

Jars by CheVelle
Hopefully this will help some people out there, it's not perfect but I do believe it's 
only one out so far and also the first thing I ever tabbed out so here it goes....

Intro
c-------------------riff a------------------]
g-------------------------------------------]
d#------------------------------------------]
a#------------------------------------------]
f-------------------------------------------]
A#-12-12-0-12-15-15-0-12-10-10-0-10-8-8-0-8-]

c------------------------------------------]
g------------------------------------------]
d#-----------------------------------------]
a#-----------------------------------------]
f------------------------------------------]
A#-12-12-0-12-15-15-0-12-10-10-0-10-8-8-0--]

For the verse play riff a twice then-

pre chorus

c-------------]-------]
g-------------]-------]
d#---2-0-2--X7]---2-0-]
a#-0--0-0-----]-0--0--]
f--0----------]-0-----]
a#-0----------]-0-----]

Chorus

c--------------------------]
g-------------------x2-----]
d#-------------------------]
a#-12-----3-----8-----5----]
f--12-----3-----8-----5----]
A#-12X14--3x14--8x14--5x14-]


Post chorus

play riff a once then

c----------------------------------]
g----------------------------------]
d#---------------------------------]
a#---------------------------------]
f--3-3-0-3-7-7-0-7-5-5-0-5-5-7-3-0-]
A#-3-3-0-3-7-7-0-7-5-5-0-5-5-7-3-0-]

repeat riff a x 4 then pre chorus and chorus and post chorus

Interlude

Play post chorus 1 time under this part

  t  t  t  t  t  t t t
c-17-15-13-12-10-6-8-6-]
g----------------------]
d#---------------------]
a#---------------------]
f----------------------]
A#---------------------]

the next part of the interlude is

c-------------------------------------]
g-------------------------------------]
d#------------------------------------]
a#------------------------------------]
f--12-0-10^12-12-0-10^12-12-0-10^12-8-]
A#-12-0-10^12-12-0-10^12-12-0-10^12-8-]

c-----------------------------------------]
g------------------------------x3---------]
d#----------------------------------------]
a#----------------------------------------]
f--10^12-12-0-10^12-12-0-10^12-0-10^12-8--]
A#-10^12-12-0-10^12-12-0-10^12-0-10^12-8--]

then repeat chorus x 2

outro

after bass play this

c------]
g------]
d#-----]
a#-----]
f--12/-]
a#-12/-]

legend
/ slide
] bar
^ hammer on or pull off
t tremelo pick

any suggestion e-mail me at 09bpott@gmail.com
I'm  also thinking about making a guitar pro version that would probably be more correct 
look around for it!
(insert witty catch phrase here)
Tap to rate this tab
# A B C D E F G H I J K L M N O P Q R S T U V W X Y Z