Song name
# A B C D E F G H I J K L M N O P Q R S T U V W X Y Z

Chevelle - Family System tab

Artist: Chevelle
Album: Wonder What's Next
Song: Family System
Tabber: supreemo

Tuning: Drop-D down 1 1/2 step

Intro: (clean)
C#|--------------------------0--|
G#|----0-0----0-0----0-0--------|
E |-444-4--444-4--444-4--4455---|
B |-----------------------------|
F#|-----------------------------|
B |-----------------------------|

C#|--------------------------0--|
G#|----0-0----0-0----0-0--------|
E |-444-5--444-5--444-5--4455---|
B |-----------------------------|
F#|-----------------------------|
B |-----------------------------|

Pre-Chorus:
C#|----------------------------------------------------|
G#|----------------------------------------------------|
E |----------------------------------------------------|
B |----------------------------------------------------|
F#|-0-0---------------------0-0-----------------0--0-0-|
B |-0-0-7-3-0-6-3-0-3-6-0-0-0-0-7-3-0-6-3-0-3-6-0--0-0-|
PM      . . . . . . . . . .

Chorus:
C#|-------------------------|
G#|-------------------------|
E |-------------------------|
B |-7-3-0-7-3-0-6-3-0-3-6-0-|
F#|-7-3-0-7-3-0-6-3-0-3-6-0-|
B |-7-3-0-7-3-0-6-3-0-3-6-0-| x3

C#|---------------3*3*3*3*-|
G#|---------------3*3*3*3*-|
E |---------------3*3*3*3*-|
B |-7-3-0-7-3-0-3----------|
F#|-7-3-0-7-3-0-3----------|
B |-7-3-0-7-3-0-3----------| x1

C#|-------------------------|
G#|-------------------------|
E |-------------------------|
B |-7-3-0-7-3-0-6-3-0-3-6-0-|
F#|-7-3-0-7-3-0-6-3-0-3-6-0-|
B |-7-3-0-7-3-0-6-3-0-3-6-0-| x4

Verse:
C#|---------xxxx--------------------xxxx-------------|
G#|---------xxxx--------------------xxxx-------------|
E |-5555555-xxxx-5555---------------xxxx-------------|
B |-3333333-xxxx-3333-555555-000000-xxxx-0000-555555-|
F#|-3333333-xxxx-3333-555555-000000-xxxx-0000-555555-|
B |-3333333-xxxx-3333-555555-000000-xxxx-0000-555555-|

Pre-Chorus 2:
C#|----------------------------|
G#|----------------------------|
E |----------------------------|
B |----------------------------|
F#|----------------------------|
B |-7-3-0-7-3-0-7*-4*-3*-4*-7*-|
PM  . . . . . .

Bridge:
C#|--------------------|
G#|-0-0-----0-0--------|
E |--5-44----5-44------|
B |--------------------|
F#|------00------0-0-0-|
B |------00------0-0-0-|
PM               . . .

C#|--------------------|
G#|-0-0-----0-0--------|
E |--5-44----5-44------|
B |--------------------| let 0's ring
F#|------00------0-0-0-|
B |------00------0-0-0-|

C#|-----------------------------|
G#|-----------------------------|
E |-------555-444-------555-444-|
B |-33333-xxx-xxx-00000-xxx-xxx-|
F#|-33333-333-222-00000-333-222-|
B |-33333---------00000---------|

Ending:
C#|-------------------------|
G#|-------------------------|
E |-------------------------|
B |-7-3-0-7-3-0-6-3-0-3-6-0-|
F#|-7-3-0-7-3-0-6-3-0-3-6-0-|
B |-7-3-0-7-3-0-6-3-0-3-6-0-| x3

C#|---------------3*3*3*3*-|
G#|---------------3*3*3*3*-|
E |---------------3*3*3*3*-|
B |-7-3-0-7-3-0-3----------|
F#|-7-3-0-7-3-0-3----------|
B |-7-3-0-7-3-0-3----------| x1

C#|---------------|
G#|-22222222------|
E |-33333333------|
B |-00000000------|
F#|-00000000-0000-|
B |-00000000-0000-| x3 then...
PM           ....

C#|-----------------|
G#|-22222222--0-0-0-|
E |-33333333-4-4-4--|
B |-00000000--------|
F#|-00000000--------|
B |-00000000--------| x1

C#|-------------------------|
G#|-------------------------|
E |-------------------------|
B |-7-3-0-7-3-0-6-3-0-3-6-0-|
F#|-7-3-0-7-3-0-6-3-0-3-6-0-|
B |-7-3-0-7-3-0-6-3-0-3-6-0-| 

Final Verse:
C#|---------xxxx----------------|
G#|---------xxxx----------------|
E |---------xxxx----------------|
B |-3333333-xxxx-3333-555555-0--|
F#|-3333333-xxxx-3333-555555-0--|
B |-3333333-xxxx-3333-555555-0--|
PM                    ......


Tap to rate this tab
 
# A B C D E F G H I J K L M N O P Q R S T U V W X Y Z