Song name
# A B C D E F G H I J K L M N O P Q R S T U V W X Y Z

Chevelle - Straight Jacket Fashion tab

-----------------------------------------------------------------------
		Straight Jacket Fashion - Chevelle
-----------------------------------------------------------------------
Tabbed by: Minzufbotdmelon
Email: master_of_floof@yahoo.com

This is 'Straight Jacket Fashion' by Chevelle off the album 'Vena Sera'. This tab is for
who want to play the song, but don't want to go through the pain staking hassle of
your guitar to match the song. This tab is pretty accurate except for about 1 or 2 parts 
was unsure of, but I tabbed to the best of my ability here. If you have any suggestions,
e-mail me. I mean SUGGESTIONS, not BASHING. Two completely different things.

NOTE: The very beginning of the song below, it says 11, not 1.

Tuning: Standard (EADGBe)

(Intro) (I may not have the exact amount of times you play the notes perfect
so just listen to the song to get that part completely right)
e|--------------------------------------------------------------------|
B|--------------------------------------------------------------------|
G|--------------------------------------------------------------------|
D|-----------------------------------13131313131313131313131313131313-|
A|-888888888888888888888811111111111111111111111111111111111111111111-|
E|--------------------------------------------------------------------|

e|--------------------------------------------------------------------|
B|--------------------------------------------------------------------|
G|--------------------------------------------------------------------|
D|----------888888888888----------------------------------------------|
A|-6666666666666666666668---------------------------------------------|
E|--------------------------------------------------------------------|

e|----------------------------------------------------------------10--|
B|--------------------------------------------------------------------|
G|--------------------------------------------------------------------|
D|--------------------------------------------------------------------|
A|11111111-13131313-10101010--11-10-8-11111111-13131313-10101010------|
E|11111111-13131313-10101010--11-10-8-11111111-13131313-10101010------|

e|--------------------------------------------------------------------|
B|--------------------------------------------------------------------|
G|--------------------------------------------------------------------|
D|--------------------------------------------------------------------|
A|11111111-13131313-10101010--11-10-8-11111111-15151515-8888-8/-------|
E|11111111-13131313-10101010--11-10-8-11111111-15151515-8888-8/-------|

(Verse) "Don't stand around, so far it's empty..."
e|---------|
B|---------|
G|---------|
D|---------|
A|1p0------|
E|----0000-| Repeat 32 times. No, I'm not kidding.

(Prechorus 1) "There they go."
e|--------------------------------------------------------------------|
B|--------------------------------------------------------------------|
G|--------------------------------------------------------------------|
D|--------------------------------------------------------------------|
A|11111111-13131313-10101010--11-10-8---------------------------------|
E|11111111-13131313-10101010--11-10-8---------------------------------|

(Prechorus 2) "By the way, we lost because we're colorful..."
e|--------------------------------------------------------------------|
B|--------------------------------------------------------------------|
G|--------------------------------------------------------------------|
D|--------------------------------------------------------------------|
A|--------------------------------------------------------------------|
E|xxxxxxxxxxxxxxxxxxxxxxxx11111111111100000000000---------------------|

e|--------------------------------------------------------------------|
B|--------------------------------------------------------------------|
G|--------------------------------------------------------------------|
D|-----101010101010101010------------13131313131313131313131313131313-|
A|-888888888888888888888811111111111111111111111111111111111111111111-|
E|--------------------------------------------------------------------|


(Chorus) "Cause quietly, you're overrated anyhow..."
NOTE; This is only the notes you strum. Listen to the song to get the right strumming
What? I'm lazy.
e|--------------------------------------------------------------------|
B|--------------------------------------------------------------------|
G|--------------------------------------------------------------------|
D|--------------------------------------------------------------------|
A|-8-11-6-8-11111111-13131313-10101010--11-10-8-----------------------|
E|-8-11-6-8-11111111-13131313-10101010--11-10-8-----------------------|

(Verse) "Climb up your pedestal, to hang yourself from it..."
(Prechorus 1)
(Prechorus 2)
(Chorus)
(Bridge)"His straight jacket fashion..."

e|----------------------------------------------|
B|----------------------------------------------|
G|----------------------------------------------|
D|----------------------------------------------|
A|66666666666----------4433333333333------------|
E|-----------4444444444-------------00000000000-|Repeat 4 times.

e|--------------------------------------------------------------------|
B|--------------------------------------------------------------------|
G|--------------------------------------------------------------------|
D|--------------------------------------------------------------------|
A|11111111-13131313-10101010--11-10-8---------------------------------|
E|11111111-13131313-10101010--11-10-8---------------------------------|

(Prechorus 2)

(Chorus 2) Again, only notes to strum, not actual pattern.
e|--------|
B|--------|
G|--------|
D|--------|
A|-8-11-6-|
E|-8-11-6-| Repeat 4 times. On last time, strum additional note below afterwards.

e|---|
B|---|
G|---|
D|---|
A|-8-|
E|-8-|

e|-----------------------------------------------------------------10-|
B|--------------------------------------------------------------------|
G|--------------------------------------------------------------------|
D|--------------------------------------------------------------------|
A|-11111111-13131313-10101010--11-10-8-11111111-13131313-10101010-----|
E|-11111111-13131313-10101010--11-10-8-11111111-13131313-10101010-----|

e|--------------------------------------------------------------------|
B|--------------------------------------------------------------------|
G|--------------------------------------------------------------------|
D|--------------------------------------------------------------------|
A|11111111-13131313-10101010--11-10-8-11111111-15151515-8888-8/-------|
E|11111111-13131313-10101010--11-10-8-11111111-15151515-8888-8/-------|

Well, that's it. Feel free to e-mail me for comments and advice. And by that, I mean
HELPFUL advice.
Tap to rate this tab
 
# A B C D E F G H I J K L M N O P Q R S T U V W X Y Z