Song name
# A B C D E F G H I J K L M N O P Q R S T U V W X Y Z

Chew Lips - Karen tab

Capo on 7

Intro
e|--------------------------------|
B|1-0-----1-0-----1-0-----1-0-----|
G|----0-------0-------0-------0---|
D|------2-------2-------2-------2-|
A|--------------------------------|
E|--------------------------------|

Verse - Played at end of each phrase
e|0---0---0---0---0---0---0---0---|
B|-1---1---1---1---3---3---3---3--|
G|--0---0---0---0---0---0---0---0-|
D|--------------------------------|
A|--------------------------------|
E|--------------------------------|

Chorus Part 1
e|-----------------------------------------|
B|1---1---1---1---0---1---1---1---1---0----|
G|-2---2---2---2---0-0-0---0---0---0---0-0-|
D|--2---2---2---2---2---2---2---2---2---2--|
A|-----------------------------------------|
E|-----------------------------------------|

Chorus Part 2
e|-------------------------0-------0----|
B|3---3---3---1---1------1--1-1--1--1-1-|
G|-2---2---2---2---2-2--2-2--2--2-2--2--|
D|--2---2---2---2---2-------------------|
A|--------------------------------------|
E|--------------------------------------|

Intro

Verse

Chorus 1 & 2

Break - This uses a tremolo effect plus more distortion
e|----------------------------------------------------------|
B|----------------------------------------------------------|
G|----------------------------0~----------------------------|
D|0~-----2~--------------------------2~---------------------|
A|--------------2~-----0~-------------------0~--------------|
E|----------------------------------------------------------|x2

Chorus 1 & 2 to end :)

This song is brilliant, and this tab should be spot on :)

Enjoy!!!
Tap to rate this tab
 
# A B C D E F G H I J K L M N O P Q R S T U V W X Y Z