Song name
# A B C D E F G H I J K L M N O P Q R S T U V W X Y Z

Chickenfoot - My Kinda Girl tab

Chickenfoot - 'My Kinda Girl'
From Debut Album
Drop-D Tuning - DADGBE
Tabbed by jjhand

Please rate or Comment. The solo of this song was very inventive so I
tried best to get the pattern of pull-offs right. Let me know if you
have any suggestions. Cool Riffs in this song too!


Intro
   Em add2         G/D           G/A
e|---------------------------------|--------------0---------------|
B|---------0---------------0-------|----------------0-------------|
G|-----0-----0---------0-----0-----|---7------0-------7---7-------|
D|---4---------4-0---0---0-----0---|----4/5-----------------------|
A|-------2-----------------------0-|-0------0-----------0-----0---|
D|-2---------------0---------------|----------------------------0-|

e|---------------------------------|------------------------------|
B|---------0-----------0-----------|------------------------------|
G|-----0-------0-----0-------0-----|------------------------------|
D|---4-------4---0-0-------0---0---|------------------------------|
A|---------------------------------|-0----------------------------|
D|-2-----2-------------------------|------------------------------|




Verse (played similarly throughout with little variations)

   Em add2             Dsus4               A                                 Asus4
e|-------------------|-------------------|-----------------------|--------------------0--|
B|-------------------|-------------------|-----------------------|-----------3--3-----2--|
G|--------------0----|-------0------0----|------------2-----0--2-|-2----2----2--2--2--2--|
D|------------4------|-------0------0----|-2----2--2--2-----0--2-|-2----2----2--2--2--2--|
A|-2---2-2----2----0-|-(0)------0-0------|-0----0--0--0--0-------|-0----0----0--0--0--0--|
D|-2---2-2----2----0-|-(0)------0-0------|-----------------------|-----------------------|

Verse 1:
"Well, the sun's up, it's 6:30
Fell asleep with the TV on again
Take five, check out the weather
It's monday morning for the single mom

And a, works hard till 5:30
And once a week she gettin' down and dirty
Backstage without a pass
"This Bud's For You" is tattooed on her ass"



Chorus (2 guitar parts written for one) - play 2x

e|-3----3----3--3--3-----|---------------------3--|-(3)---3---2---2---|-0----2----2----2----|
B|-0----0----0--0--0-----|---------------------3--|-(3)---3---3---3---|-3----3----3----3----|
G|-0----0----0--0--0--0--|-(0)---0----0--0--0--0--|-(0)---0---0---0---|-0----0----0----0----|
D|-0----0----0--0--0--0--|-(0)---0----0--0--0-----|-------------------|---------------------|
A|--------------------0--|-(0)---0----0--0--0--3--|-(3)---3---3---3---|-3----3----3----3----|
D|-5----5----5--5--5--0--|-(0)---0----0--0--0-----|-------------------|---------------------|

1  "She's Nobody's fool"
2  "Outta Touch         in a modern           world"


e|-3----3----3--3--3-----|---------------------0--|-(0)---0---2---2---|-3----3----2----0----|
B|-0----0----0--0--0-----|---------------------3--|-(3)---3---3---3---|-3----3----3----3----|
G|-0----0----0--0--0--0--|-(0)---0----0--0--0--0--|-(0)---0---0---0---|-0----0----0----0----|
D|-0----0----0--0--0--0--|-(0)---0----0--0--0-----|-------------------|---------------------|
A|--------------------0--|-(0)---0----0--0--0--3--|-(3)---3---3---3---|-3----3----3----3----|
D|-5----5----5--5--5--0--|-(0)---0----0--0--0-----|-------------------|---------------------|

1  "Shes    broken   down,  broken hearts, broken rules"
2  "But she's My         kinda            girl"





Solo 1 (1:28) - Rhythm guitar plays verse part during solo

e|-------------12----|-----------12~---12------|-------------12----------|
B|-15b17~~~-------12-|-15-b17r15---------15p12-|-------15b17----12-------|
G|-------------------|-------------------------|-------------------14b16-|
D|-------------------|-------------------------|-------------------------|
A|-------------------|-------------------------|-------------------------|
D|-------------------|-------------------------|-------------------------|

--------------------------|
--------------------------|
-12-14-14b16-12~~---------|
------------------14p12---|
-----------------------14-|
--------------------------|


e|--------------------------|------------------|----------------------|-----------------|
B|--------------------------|------------------|------------------/15-|-(15~~~~~)-------|
G|-------12-----------------|------------------|-12p11---11b12r11-----|-----------------|
D|-12-14---14---------------|---------------12-|------12--------------|-----------------|
A|-----------14-12-10-12/14-|-10h12~~~~\-------|----------------------|-----------------|
D|--------------------------|------------------|----------------------|-----------------|



Play Verse again,  Lyrics:

"Yeah, she just a-bit roughed out, tough but classy
All dressed up, she looks so s-s-s-sassy
Hey bartender, come down here
Watch her blow the head off a tall, blonde beer"



Play Chorus again




Bridge - listen for changes in rhythm of natural harmonics

e|---------------------|-------------------|-----------------------|---------------------|
B|---------------------|-------------------|-----------------------|---------------------|
G|-----NH*************-|-------------------|------NH**************-|---------------------|
D|-2---2.2-2.2-2.2-2.2-|-2----5---/7----0--|-2----2.2-2.2--2.2-2.2-|-2---/5----4----0----|
A|-2---2.2-2.2-2.2-2.2-|-2----5---/7----0--|-2----2.2-2.2--2.2-2.2-|-2---/5----4----0----|
D|-2-------------------|-2----5---/7----0--|-2---------------------|-2---/5----4----0----|

"Yes she's my           kind                  My                    kind"


e|---------------------|-------------------|-----------------------|---------------------|
B|---------------------|-------------------|-----------------------|---------------------|
G|-----NH*************-|-------------------|------NH**************-|---------------------|
D|-2---2.2-2.2-2.2-2.2-|-2----5----7----0--|-2----2.2--play 8x-----|-2--2-/5----4----2---|
A|-2---2.2-2.2-2.2-2.2-|-2----5----7----0--|-2----2.2--------------|-2--2-/5----4----2---|
D|-2-------------------|-2----5----7----0--|-2---------------------|-2--2-/5----4----2---|

  "My                   kinda girl"




PreSolo (2:41)

e|-2---2-2----2--2--2--2--|-2--2----------------|-----------------------|--------------------|
B|-3---3-3----3--3--3--3--|-3--3--3p0--0--0-----|-----------------------|-----------8--------|
G|-4---4-4----4--4--4--4--|-4--4--4p0--0--0-----|--------------7--------|--------------7-----|
D|-4---4-4----4--4--4--4--|-4--4--4p0--0--0-----|-7----7----7--7--7--7--|-7---------------5--|
A|-2---2-2----2--2--2--2--|-2--2-------------0--|-7----7----7--7--7--7--|-7----7p5-----------|
D|------------------------|------------5--5--0--|-7----7----7--7--7--7--|-7----7p5-----------|
                 "My       Kind        Of     Girl" 


e|-------------------|-2----3----3p2------|-----------------------|----------------------|
B|---------2--2h3----|-3----3----3--------|-------3------3--------|-------3--------------|
G|-4----4--4--4------|-2----2----2--------|-2--2--2------2--2--2--|-2--2--2----2--2--2---|
D|-4----4--4--4------|-0------------------|-2--2--2------2--2--2--|-2--2--2----2--2--2---|
A|-2----2--2--2------|-0------------------|-0--0--0------0--0--0--|-0--0--0----0--0--0---|
D|-------------------|-0------------------|-----------------------|----------------------|
                "In a  modern         world"




Solo (open string pull-offs will be softer than main high notes) - 2nd guitar plays Presolo chords

e|------------19p17p0---------------17p15p0-|-15p14p12---------------12p10p0-10p9p0--------|
B|-0h17p0-19p0-------19p17p0-17p15p0--------|---------15p14p0-14p12p0--------------12p10p0-|
G|------------------------------------------|----------------------------------------------|
D|------------------------------------------|----------------------------------------------|
A|------------------------------------------|----------------------------------------------|
D|------------------------------------------|----------------------------------------------|

e|-------10p9p0-9p7p0-----------7p5p0-|-5p3p0-3p2p0-----------|-----------------7----|
B|-10p8p0------------8p7p0-7p5p0------|------------3p2p0------|-2b3r2~~p0----/7------|
G|------------------------------------|-----------------------|--------------/7------|
D|------------------------------------|-----------------------|----------------------|
A|------------------------------------|-----------------------|----------------------|
D|------------------------------------|-----------------------|----------------------|

e|--------7--------7---------|------------|-5~~\whammy dive------|-12NH~~~~~~--|
B|---------10p7--7---10p7----|------------|-5~~\-----------------|-------------|
G|-9b11~~------7---------9p7-|-9~~~~~~~\--|----------------------|-------------|
D|---------------------------|------------|----------------------|-------------|
A|---------------------------|------------|----------------------|-------------|
D|---------------------------|------------|----------------------|-------------|



Play the Presolo again & end with echo feedback



Play verse for 8 bars

Lyrics: "Outspoken in the bedroom
Ain't afraid to tell you what she needs
And I'm happy, whoo, if she's happy
Lord, I'm always up for them dirty deeds"



Play Chorus again with this Lead part:

(3:41)
E|-----------------------------------|
B|-b14r13-11-13-11-13b15r13p11-------|
G|----------------------------12~~---|
D|-----------------------------------|
A|-----------------------------------|
D|-----------------------------------|

(3:49)
E|---------------------------------------------------|
B|-b14r13-11--b14r13-11--13-11-13-11b12--------11b12-|
G|-------------------------------------12-10-12------|
D|---------------------------------------------------|
A|---------------------------------------------------|
D|---------------------------------------------------|

(3:57)
E|--------15--18-18b--15--15-------------|
B|-15--17---------------18---18b20~~-----|  'b' without number after it
G|---------------------------------------|   is a slight bluesy bend
D|---------------------------------------|
A|---------------------------------------|
D|---------------------------------------|

(4:04)
E|-3----------3------------------------------|
B|---6p3--------3----3-3---------------------|
G|-------5-5b7----5b6---6-5-3-5---3b---------|
D|------------------------------5----5p3-5\--|
A|-------------------------------------------|
D|-------------------------------------------|

(4:09)
E|-----------|-------------|-------------------|-------------------|
B|-----------|-------------|-------------------|-------------------|
G|-12--------|-12b14~------|-r12~--------------|-----12------------|
D|-----------|-------------|----------12b14r12-|-b14---------------|
A|-----------|-------------|-------------------|--------12b14r~-10-|
D|-----------|-------------|-------------------|-------------------|

E|---------------|----------------|--------------------------|----------|
B|---------------|----------------|------------12b-12b-------|----------|
G|---------------|----------7-----|-7-----12-----------12p10-|-12-12~~~-|
D|---------------|--------7-----5-|----/14--14---------------|----------|
A|-(10)----7b9r7-|-5---/9-----0---|--------------------------|----------|
D|---------------|----------------|--------------------------|----------|


Play Presolo to end song


KEY:
| /  slide up
| \  slide down
| h  hammer-on
| p  pull-off
| ~  vibrato
| x  Mute note
| NH natural harmonic
| b  bend note
| r  release bend
Tap to rate this tab
# A B C D E F G H I J K L M N O P Q R S T U V W X Y Z