Song name
# A B C D E F G H I J K L M N O P Q R S T U V W X Y Z

Chico Trujillo - Loca tab

Notas

Dm: 557765
Gm: 355333
A7: 575655

Riff

 Dm

e|-1--1---1--1---1--1---1--1-----|
B|-3--3-3-2--2-2-1--1-1-0--0-0---|
G|-2-2----2-2----2-2----2-2------|


Intro:

    Dm                           Gm                 A7
e|---5-------5-------5------5--------3--------3-------5-5------5-5--|
B|---6-6-----6-6-----6-6----6-6------3-3------3-3-----5-5------5-5—-|
G|---7-7-----7-7-----7-7----7-7------3-3------3-3-----6-6------6-6--|
D|-----7-------7-------7------7------5-5--------5-----5--------5-5--|
A|--5----0-4-----0-3---------------------5---------------7----------|
E|------------------------7-------3---------3-------5--------5------|


Dm
Loca, loca, loca,
             Gm                        A7
te volviste loca y disparaste frente a mí.
                 Dm
Que te habías enamorado hace unos años sin decirme nada,
              Gm                A7
entonces la emoción confirma el sentimiento.

Dm
Loca, loca, loca,
             Gm                         A7
te volviste loca y disparaste frente a mí.
                    Dm
Que te habías enamorado hace unos años sin decirme nada,
                Gm               A7         D7
entonces la emoción confirma el sentimiento oh

Coro:

Gm                           A7
Que mala suerte en el amor y buena suerte en el juego
Riff (tambien se puede hacer rasgueado)
Y si al final lo que hay que vivir, lo que hay que soñar, hay que vivirlo
Gm                           A7
Te vuelvo a dar las gracias, te vuelvo a dar las gracias.

Se repiten los mismos acordes

Me muero por saber que paso contigo,
en todos estos años en que no nos vimos.
Me muero por saber que paso en tu cama,
necesito esa cara de vulgaridad en mi cama,
la que me dice que hacer, la que pregunta
por que?, como?, no se y dondee?

Que mala suerte en el amor y buena suerte en el juego
Y si al final lo que hay que vivir, lo que hay que soñar, hay que vivirlo
Te vuelvo a dar las gracias, te vuelvo a dar las gracias.

Punteo


e|-5-55-5-5-5-------5---10---9-10-9-10-9-10-9--------------------------|
B|-5-55-6-6-5-----5---------------------------10----/10-11-13-11-10-11-|
G|-6-66-7-7-6---6------------------------------------------------------|
D|---------------------------------------------------------------------|
A|---------------------------------------------------------------------|
E|---------------------------------------------------------------------|


e|-----------------------------------5-5-5-5----13-----13--------------|
B|-11-13-11-10-11-10---------------5-5-6-6-6------15-----15------------|
G|-------------------11-10-9~-----6--6-6-6-6--------14-----14----------|
D|-------------------------------7---------------------------15--15-12-|
A|---------------------------------------------------------------------|
E|---------------------------------------------------------------------|


e|--------------------------10-10-10-10------10-10----12-10-9----------|
B|--------------------------11-11-11-11-11---11-11----11-11-10---------|
G|-------12-14-12-14~---14--12-12-12-12---12-12-12-12-------9----------|
D|-14-15---------------------------------------------------------------|
A|---------------------------------------------------------------------|
E|---------------------------------------------------------------------|

e|-10-9-------------------|
B|-----10----------10-----|
G|-------9---------11-----|
D|--------12-11~---12-----|
A|------------------------|
E|------------------------|



Que mala suerte en el amor y buena suerte en el juego
Y si al final lo que hay que vivir, lo que hay que soñar, hay que vivirlo
Te vuelvo a dar las gracias, te vuelvo a dar las gracias.
Tap to rate this tab
 
# A B C D E F G H I J K L M N O P Q R S T U V W X Y Z