Song name
# A B C D E F G H I J K L M N O P Q R S T U V W X Y Z

Childish Gambino - Heartbeat tab

-------------------------------------------------------------------------------
                             HEARTBEAT - Childish Gambino
-------------------------------------------------------------------------------

This is just the piano chords in the intro transcribed to guitar. It is all tabbed by 
ear so it may not be 100% correct but from what I hear, the notes on guitar sync up to the 
piano perfectly.

e|---------------------------------------------------------|
B|-------------7-3---0---------------------7-3---0---------|
G|-0-----------------------0-2-4-----------------------0-2-|
D|-------4--------------4------------4--------------4------|
A|-------5-------2------3------------5-------2------3------|
E|-0---------------------------0---------------------------|

That loops until the electronic part comes in. Thanks for reading my tab, please rate 5 
stars if you thought it was accurate! :)
Tap to rate this tab
# A B C D E F G H I J K L M N O P Q R S T U V W X Y Z