Song name
# A B C D E F G H I J K L M N O P Q R S T U V W X Y Z

Children Of Bodom - Shining tab

-------------------------------------------------------------------------------
                   Shining (Homeland II) - Children of Bodom
-------------------------------------------------------------------------------
Tabbed by: Vulture1
Album: Shining

Tuning: Standard

e|---------------------------------------------|
B|----9-11-----------12-14-----------7-9-------|
G|-9-------7-----12--------10-----7------5-----|
D|---------------------------------------------|
A|---------------------------------------------|
E|---------------------------------------------|

e|---------------------------------------------|
B|-9-7-------------9-11----------9-11----------|
G|-----10-8-----7-------9-----9-------9--------|
D|---------------------------------------------|
A|---------------------------------------------|
E|---------------------------------------------|

e|---------------------------------------------|
B|----9-11-------------------------------------|
G|-9-------7---7h9h7-5-------------------------|
D|---------------------7--9h10h9---------------|
A|---------------------------------------------|
E|---------------------------------------------|

repeat x2

| /  slide up
| \  slide down
| h  hammer-on
| p  pull-off
| ~  vibrato
| +  harmonic
| x  Mute note
===============================================================================
Tap to rate this tab
 
# A B C D E F G H I J K L M N O P Q R S T U V W X Y Z