Song name
# A B C D E F G H I J K L M N O P Q R S T U V W X Y Z

Chilliwack - Arms Of Mary tab

-------------------------------------------------------------------------------
			     Arms of Mary - Chilliwack
-------------------------------------------------------------------------------
Tabbed by:Jonny Kushneriuk
Email: jonnyk@sasktel.net

Tuning:Standard

e|---15----------------------------------------------------------------------
B|--------15b----15b----15b----15r----13h15p13--------13------------13-------|
G|-----------------------------------------------14-----------14-------------|
D|---------------------------------------------------------------------------|
A|---------------------------------------------------------------------------|
E|---------------------------------------------------------------------------|

e|----16b------16h18-----16----15----12h15p12--------------------------------|
B|---------------------------------------------13----------------------------|
G|---------------------------------------------------12----10----9-----------|
D|---------------------------------------------------------------------9/----|
A|---------------------------------------------------------------------------|
E|---------------------------------------------------------------------------|

e|---------------------------------------------------------------------------|
B|---------------------------------------------------------------------------|
G|------------5--------7b----7b----------------------------------------------|
D|---5h7-----------------------------5h7p5-----------------------------------|
A|---------------------------------------------------------------------------|
E|---------------------------------------------------------------------------|


| /  slide up
| \  slide down
| h  hammer-on
| p  pull-off
| ~  vibrato
| +  harmonic
| x  Mute note
==================================================================
Tap to rate this tab
# A B C D E F G H I J K L M N O P Q R S T U V W X Y Z