Song name
# A B C D E F G H I J K L M N O P Q R S T U V W X Y Z

China Crisis - Wishful Thinking chords

Highlighted       Show chord diagrams
This is my best effort at this tab. Please make it better by constructive comments. 
Cheers Billy.
INTRO

e---------------0-------0---------|
---------2-3-3---2-3-3----------0-|
-------2------------------0-2-2---|
 0-4-4----------------------------|
----------------------------------|
E---------------------------------|


e--------------0-------0-3-2-2-0---|
---------2-3-3---2-3-3-------------|
-------2---------------------------|
-0-4-4-----------------------------|
-----------------------------------|
E----------------------------------|

 D                   G          A
Its time we should talk about it
 G                       D
theres no secret kept in here

BRIDGE

-2-2---------------0-------------|
-----3-3---3-3-------------------|
---------0-----0-0----TWICE------|
---------------------------------|
---------------------------------|
---------------------------------|

 D
forgive me for asking

 G                     A
now wipe away your tears

BRIDGE

 F                        G
and if i wish to stop it all

 F                             G
and if i wish to comfort the fall

 GMAJ7
its just wishful thinking

INTRO AGAIN

  D                       G               A
i sat on the roof and watched the day go by

 G                          D
i see the likeness in his smile

 G                 A
and the way he stands

 G                   D
makes it all worth while


GO AGAIN FROM TOP
Tap to rate this tab
 
# A B C D E F G H I J K L M N O P Q R S T U V W X Y Z