Guitaretab - guitar tabs
Song name
# A B C D E F G H I J K L M N O P Q R S T U V W X Y Z

Chockfull - Waste Of Time tab

This song was written by Chockfull, a Dutch band. You can download the song at www.chockfull.nl / songs
All right, this isn't a proffesional band, but there's no need to discriminate us 'cos we're dutch


Intro:
Gtr 1
----------------------------|
----------------------------|
----------------------------|
-7-7--10-10--5-5--7-7-------| 2x
-5-5--8--8--3-3--5-5-------|
----------------------------|

Gtr 2
----------------------------|
----------------------------|
----------------------------|
----------------------------|
-5-5--7-7--10-10--5---------|
-3-3--5-5---8--8--3---------|


Chorus:
Gtr 1
---------------------------------------------------------------|
---------------------------------------------------------------|
---------------------------------------------------------------|
---------------------------------5-5-5-5-5-5-5-5-----------5-5-|
-5-5-5-5-5-5-5-5-7-7-7-7-7-7-7-7-3-3-3-3-3-3-3-3-5-5-5-7-7-3-3-|
-3-3-3-3-3-3-3-3-5-5-5-5-5-5-5-5-----------------3-3-3-5-5-----|
[ Tab from: http://www.guitaretab.com/c/chockfull/133613.html ]
Gtr 2
------------------------------------------------------|
------------------------------------------------------|
------------------------------------------------------|
------------------------------------------------------|
-10-10-10-10-10-10-10-10-12-12-12-12-12-12-12-12-12---|
------------------------------------------------------|

-----------------------------------------------------|
-----------------------------------------------------|
-----------------------------------------------------|
-10-10-10-10-10-10-10-10-----------------------------|
-------------------------10-10-10-12-12-14-14--------|
-----------------------------------------------------|


Verse:

Gtr 1
--------------------------|
--------------------------|
--------------------------|
-7-7-7-7-7--3-3-3------5--|
-------------------3-3----|
--------------------------|

Gtr 2
-----------------------------------------------|
-----------------------------------------------|
-----------------------------------------------|
----------------14-14-14-14-10-10-10--5-5--12--|
-7-7-7-7-7-7-7--12-12-12-12--8--8--8--3-3--10--|
-5-5-5-5-5-5-5---------------------------------|

Chorus 4x

Verse 4x


Bridge:

Gtr 2
-------------------------------------------------|
-------------------------------------------3s15--|
-------------------------------------------------|
-------------------------------------------------|
-5-x-x-x-x--5s7-x-x-x-x--7s10-x-x-x-x-10s5-------|
-3-x-x-x-x--3s5-x-x-x-x--5s-8-x-x-x-x--8s3-------|


Chorus 4x

I haven't written all muted notes, but I think you'll be able to find out the rhythm 
you can just give up the guitar)

By CFTim