Song name
# A B C D E F G H I J K L M N O P Q R S T U V W X Y Z

Chris And Conrad - Lead Me To The Cross tab

Lead Me To the Cross

Intro:
E|------------------|
A|------------------|
D|-8-9-8-9----------|
G|---------6-8-6-8--|
B|------------------|
E|-----------------6|


E|------------------|
A|------------------|
D|-8-9-8-9----------|
G|---------6-8-6-8--|
B|----------------9-|
E|------------------|

Verse 1:
Em       D
Savior I come 
         C      G  D 
Quiet my soul remember
Em           D 
Redemptions hill
                     C 
Where Your blood was spilled 
       G  D 
For my ransom 

Prechorus: 
Am           D 
Everything I once held dear 
  Em       D      C 
I count it all as lost 

Chorus: 
               C 
Lead me to the cross 
           G           D 
Where Your love poured out 
               C 
Bring me to my knees 
       G      D 
Lord I lay me down 
            C 
Rid me of myself 
    G       D 
I belong to You 
      C  G       D 
Lead me, lead me to the cross

E|------------------|
A|------------------|
D|-8-9-8-9----------|
G|---------6-8-6-8--|
B|------------------|
E|-----------------6|


E|------------------|
A|------------------|
D|-8-9-8-9----------|
G|---------6-8-6-8--|
B|----------------9-|
E|------------------|
 

Verse 2: 
Em          D 
You were as I 
            C 
Tempted and trialed 
G   D 
You are 
Em              D 
The word became flesh 
                C 
Bore my sin and death 
           G  D 
Now you're risen 

(Prechorus) 
(Chorus) 

Bridge: 
        G     C  D 
To your heart 
        G     C  D 
To your heart 
                G     C  D 
Lead me to your heart 
                G     C  D 
Lead me to your heart
(Chorus) 
Tap to rate this tab
# A B C D E F G H I J K L M N O P Q R S T U V W X Y Z