Song name
# A B C D E F G H I J K L M N O P Q R S T U V W X Y Z

Chris And Conrad - Lead Me To The Cross tab

Here are the lead guitar parts for this song ik this song is halfstep tuning
but i learned it in standred.

Tabbed by Brandon Bushnell
Tuning (EADGBE)
Note) Tab is in order with the song

E|---------------------------------------------------|
B|--------------------11v--\--------------------9v~--|
G|--4-5-4-5--6-8-6-8----------4-5-4-5--6-8-6-8-------|
D|---------------------------------------------------|
A|---------------------------------------------------|
e|---------------------------------------------------|


E|-------11------9------7---------------9---------------------------------|
B|----11-------9------7---7------7----9-----------------------------------|
G|--8--------6------4----------6-----------------4---4---------6-----6----|
D|---------------------------4------6----------6-------6-----6---6-----6--|
A|-------------------------------------------6-----6-------4-------4------|
e|-----------------------------------------4------------------------------|


E|----------------------------|
B|----------------------------|
G|------8---------6-------4~--|
D|----8---------6---------4~--|
A|--6-----6---4------4----2~--|
e|----------------------------|


E|--7777-6v-666-444444--666--|2x--|--7777-6v-666-44444h6p4-7-6-4--|
B|---------------------------|----|-------------------------------|
G|---------------------------|----|-------------------------------|
D|---------------------------|----|-------------------------------|
A|---------------------------|----|-------------------------------|
e|---------------------------|----|-------------------------------|


E|--222h4p2-22-2222-/4-|
B|---------------------|
G|---------------------|
D|---------------------|
A|---------------------|
e|---------------------|


E|-------------------------------------------------------------------|
B|--------------------11v-11v-11v-/------------------9v~-7-7\6-6\4-4-|
G|--4-5-4-5--6-8-6-8---------------4-5-4-5--6-8-6-8------------------|
D|-------------------------------------------------------------------|
A|-------------------------------------------------------------------|
e|-------------------------------------------------------------------|


E|----------------7---7-----------------9---------11----11------11--|
B|--------------7-------7------7------9---9----11----11------11-----|
G|------6-----4-----4--------6---6--6--------8-------------8--------|
D|----6---6----------------4----------------------------------------|
A|--4---------------------------------------------------------------|
e|------------------------------------------------------------------|


E|------9-----9--------7-----7---------------9--|
B|----9---9-----9----7---7-----7------7----9----|
G|--6-------6------4-------4--------6----6------|
D|--------------------------------4-------------|
A|----------------------------------------------|
e|----------------------------------------------|




E|-------11------9------7---------------9---------------------------------|
B|----11-------9------7---7------7----9-----------------------------------|
G|--8--------6------4----------6-----------------4---4---------6-----6----|
D|---------------------------4------6----------6-------6-----6---6-----6--|
A|-------------------------------------------6-----6-------4-------4------|
e|-----------------------------------------4------------------------------|


E|-----------------------------------|
B|-----------------------------------|
G|------8---------6-------4-4-4-4-4--|
D|----8---------6---------4-4-4-4-4--|
A|--6-----6---4------4----2-2-2-2-2--|
e|-----------------------------------|


E|--7777-6v-666-444444--666--|2x--|--7777-6v-666-44444h6p4-7-6-4--|
B|---------------------------|----|-------------------------------|
G|---------------------------|----|-------------------------------|
D|---------------------------|----|-------------------------------|
A|---------------------------|----|-------------------------------|
e|---------------------------|----|-------------------------------|


E|--222h4p2-22-2222-/4-44-66-7-6-4-\2--|
B|-------------------------------------|
G|-------------------------------------|
D|-------------------------------------|
A|-------------------------------------|
e|-------------------------------------|


E|--------------------------------------------------------|
B|--------------------------------------------------------|
G|-----------44444444-66666666----------44444444-6666666--|
D|--44444444-44444444-66666666-44444444-44444444-6666666--|
A|--44444444-22222222-44444444-44444444-22222222-4444444--|
e|--22222222-------------------22222222-------------------|
    ........ ....... ......... ........ ........




E|--7777-6v-666-444444--666--|--|--7777-6v-666-44444h6p4-444-666|2X
B|---------------------------|--|-------------------------------|
G|---------------------------|--|-------------------------------|
D|---------------------------|--|-------------------------------|
A|---------------------------|--|-------------------------------|
e|---------------------------|--|-------------------------------|


E|-7-6-4-222h4p2-22-2222--4-44-222h4p2-22-2222-4-444h6p4-4444-6666-7777-|
B|----------------------------------------------------------------------|
G|----------------------------------------------------------------------|
D|----------------------------------------------------------------------|
A|----------------------------------------------------------------------|
e|----------------------------------------------------------------------|




E|--------------------------------------------------------|
B|--------------------11v-11v-11v-/------------------9v~--|
G|--4-5-4-5--6-8-6-8---------------4-5-4-5--6-8-6-8-------|
D|--------------------------------------------------------|
A|--------------------------------------------------------|
e|--------------------------------------------------------|
Tap to rate this tab
 
# A B C D E F G H I J K L M N O P Q R S T U V W X Y Z