Song name
# A B C D E F G H I J K L M N O P Q R S T U V W X Y Z

Chris Broderick - Betcha Cant Play This tab

Spur 1
                                        T
     S   S   S  S  S   S  S  S   S   S  S  S   S   S  S  S
E||-------------------------11h-14h-16-19-16p-14p-11--------|
B||----------------------12--------------------------12-----|
G||---------------11h-13--------------------------------13p-|
D||------------13-------------------------------------------|
A||--9h-11h-14----------------------------------------------|
E||---------------------------------------------------------|
B||---------------------------------------------------------|


                        T             T             T
   S   S  S  S   S   S  S  S   S   S  S  S   S   S  S  S
------------11h-14h-16-19-16p-14p-11----------------------|
---------12-----------------------------------------------|
--11h-13-----------------------------18-16p-13p-11--------|
----------------------------------------------------------|
---------------------------------------------------18-16p-|
----------------------------------------------------------|
----------------------------------------------------------|


                     T         T            T
   S   S  S   S   S  S  S   S  S S   S   S  S  S   S  S
---------------------------------9h-11h-14-16-14p-11p-9s-|
---------------------------------------------------------|
-----------------------11h-13-16-------------------------|
---------------------------------------------------------|
--14p-11p-9h-11h-14-18-----------------------------------|
---------------------------------------------------------|
---------------------------------------------------------|


              T                T             T
   S   S   S  S  S  S   S   S  S  S   S   S  S  S   S   S
--11h-14h-16-19-16-14s-16h-19-21-19p-16p-14----------------|
--------------------------------------------16-14p-12h-14h-|
-----------------------------------------------------------|
-----------------------------------------------------------|
-----------------------------------------------------------|
-----------------------------------------------------------|
-----------------------------------------------------------|


      T                               T
   S  S  S   S   S  S   S  S   S   S  S  S   S  S  S  S
---------------------------------------------------------|
--16-19-16p-14p-12---------------------------------------|
-------------------13p-11p-8h-11h-13-16-13p-11p-8--------|
--------------------------------------------------11p-9p-|
---------------------------------------------------------|
---------------------------------------------------------|
---------------------------------------------------------|


            T                         T
  S  S   S  S  S  S  S S  S  S  S  S  S S  S  S
------------------------------------------------|
------------------------------------------------|
------------------------------------------------|
--6h-9h-11-13-11p-9p-6--------------------------|
-----------------------9p-6p-4h-6h-9-11-9p-6p-4-|
------------------------------------------------|
------------------------------------------------|


                T                T   T   T
  S  S  S  S  S S S  S  S  S  S  S   S   S S  S     S H.            E.
-------------------------------------------------|----------------------|
-------------------------------------------------|----------------------|
-------------------------------------------------|----------------------|
-------------------------------------------------|----------------------|
-------------------------------------------------|----------------------|
--7p-4p-2h-4h-7-9-7p-4p-2h-4h-7-10s-11s-10-7p-4p-|--2-4~------------L---|
-------------------------------------------------|----------------------|


   S   S   S  S  S  S S S  S  S  S  S  S   S   S  S
--11s-13s-11p-7---------7-------11p-7---------------|
--------------------------11p-7-------11s-12s-11p-7-|
----------------10p-8-------------------------------|
----------------------9-----------------------------|
----------------------------------------------------|
----------------------------------------------------|
----------------------------------------------------|


  S  S S S  S  S S S  S   S   S  S S  S  S S
-----------------6---------------------------|
---------7---------7-------------------------|
-----------10p-8-----10s-11s-10p-8---------8-|
--9p-8---------------------------------------|
-------9---------------------------9p-8------|
----------------------------------------11---|
---------------------------------------------|


  S  S S  S S   S  S  S S  S  S  S Q        H        H
-----------------------------------------|--------------------|
-------7p-6------------------------------|--------------------|
-----------------------------------------|--------------------|
--9p-8------9s-13s-9p-8------------------|--------------------|
------------------------9p-8-------------|--------------------|
-----------------------------11p-7-6~----|--L-----------------|
-----------------------------------------|--------------------|


          T  T      T T      T  T                  T  T     T  T      T
  S  S S  S  S   S  S S   S  S  S   S   S   S   S  S  S  S  S  S   S  S S S
-------------------------------12h-15h-20p-15p-12----------------------------|
----------------------------13--------------------13-------------------------|
----------------------9h-12--------------------------12p-9-------------------|
-------------------10--------------------------------------10----------------|
-----------------------------------------------------------------------------|
-------3----12h-15--------------------------------------------15p-12----3----|
--1h-5---13----------------------------------------------------------13---5p-|


          T  T     T T      T  T                  T  T    T  T      T
  S  S S  S  S   S S S   S  S  S   S   S   S   S  S  S  S S  S   S  S S S
------------------------------11h-14h-19p-14p-11---------------------------|
---------------------------12--------------------12------------------------|
---------------------8h-11--------------------------11p-8------------------|
-------------------9--------------------------------------9----------------|
---------------------------------------------------------------------------|
-------2----11h-14------------------------------------------14p-11----2----|
--0h-4---12--------------------------------------------------------12---4h-|


          T  T      T  T      T  T                  T  T      T  T      T
  S  S S  S  S   S  S  S   S  S  S   S   S   S   S  S  S   S  S  S   S  S S S
--------------------------------15h-19h-24p-19p-15-----------------------------|
-----------------------------17--------------------17--------------------------|
----------------------12h-16--------------------------16p-12-------------------|
-------------------14----------------------------------------14----------------|
-------------------------------------------------------------------------------|
-------7----15h-19----------------------------------------------19p-15----7----|
--5h-8---17------------------------------------------------------------17---8p-|


          T  T      T  T      T  T                  T  T      T  T      T
  S  S S  S  S   S  S  S   S  S  S   S   S   S   S  S  S   S  S  S   S  S S S
--------------------------------15h-19h-24p-19p-15-----------------------------|
-----------------------------17--------------------17--------------------------|
----------------------12h-16--------------------------16p-12-------------------|
-------------------14----------------------------------------14----------------|
-------------------------------------------------------------------------------|
-------7----15h-19----------------------------------------------19p-15----7----|
--5h-8---17------------------------------------------------------------17---8p-|


          T  T      T T      T  T                  T  T     T  T      T
  S  S S  S  S   S  S S   S  S  S   S   S   S   S  S  S  S  S  S   S  S S S
-------------------------------12h-15h-20p-15p-12----------------------------|
----------------------------13--------------------13-------------------------|
----------------------9h-12--------------------------12p-9-------------------|
-------------------10--------------------------------------10----------------|
-----------------------------------------------------------------------------|
-------3----12h-15--------------------------------------------15p-12----3----|
--1h-5---13----------------------------------------------------------13---5p-|


          T  T     T T      T  T                  T  T    T  T      T
  S  S S  S  S   S S S   S  S  S   S   S   S   S  S  S  S S  S   S  S S S
------------------------------11h-14h-19p-14p-11---------------------------|
---------------------------12--------------------12------------------------|
---------------------8h-11--------------------------11p-8------------------|
-------------------9--------------------------------------9----------------|
---------------------------------------------------------------------------|
-------2----11h-14------------------------------------------14p-11----2----|
--0h-4---12--------------------------------------------------------12---4h-|


          T  T      T  T      T  T                  T  T      T  T      T
  S  S S  S  S   S  S  S   S  S  S   S   S   S   S  S  S   S  S  S   S  S S S
--------------------------------15h-19h-24p-19p-15-----------------------------|
-----------------------------17--------------------17--------------------------|
----------------------12h-16--------------------------16p-12-------------------|
-------------------14----------------------------------------14----------------|
-------------------------------------------------------------------------------|
-------7----15h-19----------------------------------------------19p-15----7----|
--5h-8---17------------------------------------------------------------17---8p-|


          T  T      T  T      T  T                  T  T      T  T      T
  S  S S  S  S   S  S  S   S  S  S   S   S   S   S  S  S   S  S  S   S  S S S
--------------------------------15h-19h-24p-19p-15-----------------------------|
-----------------------------17--------------------17--------------------------|
----------------------12h-16--------------------------16p-12-------------------|
-------------------14----------------------------------------14----------------|
-------------------------------------------------------------------------------|
-------7----15h-19----------------------------------------------19p-15----7----|
--5h-8---17------------------------------------------------------------17---8p-|


          T  T      T  T      T  T      T  T      T  T      T  T      T  T
  S  S S  S  S   S  S  S   S  S  S   S  S  S   S  S  S   S  S  S   S  S  S   S
----------------------------------------------------15h-19--------------15h-19h-|
-------------------------------------------------17------------------17---------|
----------------------12h-16--------------12h-16--------------12h-16------------|
-------------------14------------------14------------------14-------------------|
--------------------------------------------------------------------------------|
-------7----15h-19--------------15h-19------------------------------------------|
--5h-8---17------------------17-------------------------------------------------|


              T  T      T  T      T
   S   S   S  S  S   S  S  S   S  S S S  H.
--24p-19p-15-------------------------------------------||
-------------17----------------------------------------||
----------------16p-12---------------------------------||
-----------------------14------------------------------||
-------------------------------------------------------||
--------------------------19p-15----7------------------||
---------------------------------17---8p-5~------------||


Duration Legend
---------------
W - whole
H - half
Q - quarter
E - 8th
S - 16th
T - 32nd
X - 64th
. - note dotted
|-n-|  - n-tuplets


Tablature Legend
----------------
L - tied note
x - dead note
g - grace note
(n) - ghost note
> - accentuded note
NH - natural harmonic
AH - artificial harmonic
TH - tapped harmonic
SH - semi harmonic
PH - pitch harmonic
h - hammer on
p - pull off
b - bend
br - bendRelease
pb - preBend
pbr - preBendRelease
brb - bendReleaseBend
\n/ - tremolo bar dip
\n - tremolo bar dive
-/n - tremolo bar Release up
/n\ - tremolo bar inverted dip
/n - tremolo bar return
-\n - tremolo bar Release down
S - shift slide
s - legato slide
/ -  slide into from below or out of upwards
\ -  slide into from above or out of downwards
~ - vibrato
W - wide vibrato
tr - trill
TP - tremolo picking
T - tapping
S - slap
P - pop
< - fade in
^ - brush up
v - brush down
Tap to rate this tab
# A B C D E F G H I J K L M N O P Q R S T U V W X Y Z