Guitaretab - guitar tabs
Song name
# A B C D E F G H I J K L M N O P Q R S T U V W X Y Z

Chris Brown - Beautiful People chords

Highlighted       Show chord diagrams
-------------------------------------------------------------------------------
		Chris Brown ft. Benni Benassi - Beautiful People
-------------------------------------------------------------------------------

Tabbed by: danbell

Tuning: Standard

Capo can be placed on frets 1, 2 or 3 according to tone of your voice. Or not at all! 
Whatever suits you. I use Capo 1 :)

Chords Used:

These chords are D, C and G without the low e string being played.

e|--------0-------0------0------------------------------------------------------|
B|--------3-------3------3------------------------------------------------------|
G|--------2-------0------0------------------------------------------------------|
D|--------0-------2------0------------------------------------------------------|
A|--------0-------3------2------------------------------------------------------|
E|--------x-------0------3------------------------------------------------------|

Actual D, C and G chords.

e|--------2-------3------3------------------------------------------------------|
B|--------3-------3------3------------------------------------------------------|
G|--------2-------0------0------------------------------------------------------|
D|--------0-------2------0------------------------------------------------------|
A|--------0-------3------2------------------------------------------------------|
E|--------x-------0------3------------------------------------------------------|

Can play either set of chords throughout song.

Sounds good if you play one strum of the proper chord follwed by the one without the low 
e string being played though the verses.


Verse


D               C
Everywhere everywhere
G
Everywhere I go
D                    C
Everywhere that i've been
    G
The only thing I see is
             D
Is beautiful people
C          D
 Beautiful people
C          D
 Beautiful people
C          D     C--->
 Beautiful people

 D               C
(ooooh) Don't you know don't you know
 D            C
(ooooh) You're beautiful don't you know
 D               C
(ooooh) Don't you know don't you know
 D               C
(ooooh) Beautiful don't you know know know


Chorus (Should play proper chords through chorus)

[ Tab from: http://www.guitaretab.com/c/chris-brown/274111.html ]
D                        C
Live your life live your life
G
Let the love inside
D                        C
It's your life it's your life
G
Got to make it right
D                        C
Take your time take your time
G
Take your sexy time
     D                        C
Dont lose your head lose your head
     G                            D   C-->
Your beauty's deep inside, inside you


                        D        C
Don't let em' bring you down no
                 G
Your beauty is inside you
                       D        C  G-->
Dont let em' bring you down no
G               D
Your beauty is inside you
                       D     C
Dont let em' bring you down

                     D          C
Cause you start your life today
                     G
Live any thought you dreamed of

D               C
Everywhere everywhere
G
Everywhere I go
D                    C
Everywhere that i've been
    G
The only thing I see is
             D
Is beautiful people
C          D
 Beautiful people
C          D
 Beautiful people
C          D     C--->
 Beautiful people

 D               C
(ooooh) Don't you know don't you know
 D            C
(ooooh) You're beautiful don't you know
 D               C
(ooooh) Don't you know don't you know
 D               C
(ooooh) Beautiful don't you know know know


(beat break) sustain same chords

D                        C
Take your time take your time
G
Take your sexy time
     D                        C
Dont lose your head lose your head
     G                            D    C-->
Your beauty's deep inside, inside you


                        D        C
Don't let em' bring you down no
                 G
Your beauty is inside you
                       D        C
Dont let em' bring you down no
G               D
Your beauty is inside you
                       D     C
Dont let em' bring you down


D               C
Everywhere everywhere
G
Everywhere I go
D                    C
Everywhere that i've been
    G
The only thing I see is
             D
Is beautiful people
C          D
 Beautiful people
C          D
 Beautiful people
C          D     C--->
 Beautiful people

 D               C
(ooooh) Don't you know don't you know
 D            C
(ooooh) You're beautiful don't you know
 D               C
(ooooh) Don't you know don't you know
 D               C
(ooooh) Beautiful don't you know know know


Enjoy :)

Plz rate!

Dublin, Eire.
Related for Beautiful People chords
Beautiful People chords by Chris Brown