Song name
# A B C D E F G H I J K L M N O P Q R S T U V W X Y Z

Chris Cornell - The Keeper tab

 Chris Cornell - The Keeper
 Submitted by: Daffdogg
 
 I didn't bother writing all of the sections down because 
 the remaining sections all consist of these tabs anyway. This was my first
 tab, and hopefully it was pretty accurate. :)
 
 1st verse/2nd verse: 3X
 3rd verse: 1X
|------------------------------------|------------------------------------|
|---3---------3---------2------2-----|---3--------3---------2-------2-----|
|-------2---------2--------2-------2-|-------2---------2--------2-------2-|
|-----4---------4--------2-------2---|-----3---------3--------2-------2---|
|-0---------0--------0-------0-------|-0---------0--------0-------0-------|
|------------------------------------|------------------------------------|

|------------------------------------|---0--------------------------------|
|---3---------3--------2-------2-----|-------------3--------2-------2-----|
|-------2---------2--------2-------2-|-------2---------2--------2-------2-|
|-----4---------4--------2-------2---|-----3---------3--------2-------2---|
|-0---------0--------0-------0-------|-0---------0--------0-------0-------|
|------------------------------------|------------------------------------|

 Pre-Chorus and Chorus:
|------------------------------------|------------------------------------|
|---2---------2--------2-------2-----|---2---------2--------2-------2-----|
|-------2---------2--------2-------2-|-------2---------2--------2-------2-|
|-----2---------2--------2-------2---|-----4---------4--------2-------2---|
|-5---------5--------4-------4-------|------------------------------------|
|------------------------------------|-2---------2--------0-------0-------|

|------------------------------------|------------------------------------|
|---2---------2--------2-------2-----|---2---------2--------2-------2-----|
|-------2---------2--------2-------2-|-------2---------2--------2-------2-|
|-----2---------2--------2-------2---|-----4---------4--------2-------2---|
|-5---------5--------4-------4-------|------------------------------------|
|------------------------------------|-2---------2--------0-------0-------|

|------------------------------------|------------------------------------|
|---3---------3--------2-------2-----|---3---------3--------2-------2-----|
|-------2---------2--------2-------2-|-------2---------2--------2-------2-|
|-----2---------2--------2-------2---|-----2---------2--------2-------2---|
|-5---------5--------0-------0-------|-5---------5--------0-------0-------|
|------------------------------------|------------------------------------|

|------------------------------------|------------------------------------|
|---3---------3--------2-------2-----|---3---------3--------2-------2-----|
|-------2---------2--------2-------2-|-------2---------2--------2-------2-|
|-----2---------2--------2-------2---|-----2---------2--------2-------2---|
|-5---------5--------0-------0-------|-5---------5--------0-------0-------|
|------------------------------------|------------------------------------|

|------------------------------------|------------------------------------|
|---3---------3--------2-------2-----|---2---------2--------2-------2-----|
|-------2---------2--------2-------2-|-------2---------2--------2-------2-|
|-----2---------2--------2-------2---|-----2---------2--------2-------2---|
|-5---------5--------0-------0-------|------------------------------------|
|------------------------------------|-0---------0--------0-------0-------|

|------------------------------------|------------------------------------|
|---3---------3--------3-------3-----|---3---------3--------3-------3-----|
|-------2---------2--------2-------2-|-------2---------2--------2-------2-|
|-----2---------2--------2-------2---|-----2---------2--------2-------2---|
|------------------------------------|-5---------5--------5-------5-------|
|-0---------0--------0-------0-------|------------------------------------|

|------------------------------------|
|---3---------3--------3-------3-----|
|-------2---------2--------2-------2-|
|-----2---------2--------2-------2---|
|-5---------5--------5-------5-------|
|------------------------------------|

After 2nd Chorus:
|------------------------------------|------------------------------------|
|---0---------0--------0-------0-----|---4---------4--------4-------4-----|
|-------0---------0--------0-------0-|-------4---------4--------4-------4-|
|-----4---------4--------4-------4---|-----4---------4--------4-------4---|
|-2---------2--------2-------2-------|-2---------2--------2-------2-------|
|------------------------------------|------------------------------------|





Tap to rate this tab
# A B C D E F G H I J K L M N O P Q R S T U V W X Y Z