Song name
# A B C D E F G H I J K L M N O P Q R S T U V W X Y Z

Chris Isaak - Wicked Game tab

-------------------------------------------------------------------------------
			     Wicked Game - Chris Isaak
-------------------------------------------------------------------------------
Tabbed by: J.S.L
Email: jonas.lindstroem@yahoo.se

Tuning: Standard

Intro/Fills
e|---------------------------------------------------------------------------|
B|-0--6b~~--6r--0~~----0--6b~~--5-3-2-0~~------------------------------------|
G|---------------------------------------------2---1~~-----------------------|
D|-------------------------------------------2---2---------------------------|
A|---------------------------------------------------------------------------|
E|---------------------------------------------------------------------------|

Vers/Chorus
   Bm              A            E
e|---2-----0------------0-------0--------------------------------------------|
B|-----3-----3-----2------0-----0--------------------------------------------|
G|-------4-----4---2--2-----2---1-----1--2-2/4-------------------------------|
D|-----------------2------------2---2----4-4/6-------------------------------|
A|-2---------------0------------2--------------------------------------------|
E|------------------------------0--------------------------------------------|

Chords played during the song:

|  Bm  |  A  |  E  |  E  |
|  Bm  |  A  |  E  |  E  |
 

************************************

| /   slide up
| \   slide down
| h   hammer-on
| p   pull-off
| ~   vibrato
| +   harmonic
| x   Mute note
| b   Bend
| pb  Pre-bend
| br  Bend release
| pbr Pre-bend release
| brb Bend release bend

************************************
Tap to rate this tab
 
# A B C D E F G H I J K L M N O P Q R S T U V W X Y Z