Song name
# A B C D E F G H I J K L M N O P Q R S T U V W X Y Z

Chris Ledoux - Seventeen tab

-------------------------------------------------------------------------------
			     Seventeen- Chris LeDoux
-------------------------------------------------------------------------------
Tabbed by: Kody Benjamin
Email: kodybenji@rocketmail.com

Tuning: Standard (E,B,G,D,A,e)
(Intro)
e|---------------------------------------------------------------------------|
B|------------------------------------------------------------------2-2-3-2--|
G|--------------0-0h2-2---2-4-2-2---2-2-0-0--0-0----------0-0h2-2-2----------|
D|-------0-2-4----------------------------------4-2-0-2-4--------------------|
A|-0-2-4---------------------------------------------------------------------|
E|---------------------------------------------------------------------------|

e|--------------0-2-3/5-5--5-7-5-5--5-5-3-3--3-3-2-0---0-2-3/5-5-5-9-9-10-9--|
B|-0--------2-3--------------------------------------3-----------------------|
G|----0-2-4------------------------------------------------------------------|
D|---------------------------------------------------------------------------|
A|---------------------------------------------------------------------------|
E|---------------------------------------------------------------------------|
(Intro End)             (Verse)
e|-7--7-5-3-2-0-|----2----------------0----------------3---------------|--------------|
B|--------------|----3----------------2----------------3---------------|--------------|
G|--------------|-----2----------------2----------------0---------------|-------------|
D|--------------|----0----------------2----------------0------0-----0--|--------------|
A|--------------|---------------------0----------------2--------0h2----|--------------|
E|--------------|--------------------------------------3---------------|-----|Repeat--|
(Chorus)
e|----0-------------0----------------3------------2--------0--------3--------|
B|----3-------------2----------------3------------3--------2--------3--------|
G|----4-------------2----------------0------------2--------2--------0--------|
D|----4-------------2----------------0------------0--------2--------0--------|
A|----2-------------0----------------2---------------------0--------2--------|
E|-----------------------------------3------------------------------3--------|
Intro
When he was 5 years old, his mom took him down to the round corral to watch his dad work
with a young horse that he called Smokey, and man did that horse buck. But his ol' dad,
he just sat up there and rode him like there was nothin to it. From right then, the boy 
gained a whole new respect for the man. And from that day on, he knew that when he grew
up, he wanted to be a cowboy.

Verse 1
Seventeen, a cowboys dreams, aint off fixin fences, once he seen him ride in ol
cheyenne. Ranch routines and his old mans schemes, but this aint where his heart is. But 
ya know
his daddy understands,

Verse 2
When new a day  comes, father and son sit down to eat their dinner, beneath that big
wyoming sky. His daddy knows hes gotta let him go, his boy cant be a winner if he dont
spread his wings and fly

Chorus
And in his mind hes ridin bulls down in las vegas, Soon hell be on a train that leads to
santa fe. Sewwt voice of freedom echoes down the ages, and calls another cowboy on his way

Verse 3
Well the Fencings done, in the mornin sun, finds him packed an ready. Momma kissed his
cheek then she went inside. His old man well he shook his hand, said son you ride em
pretty,Didnt see the tears that his momma cried.

Chorus
Tap to rate this tab
 
# A B C D E F G H I J K L M N O P Q R S T U V W X Y Z