Song name
# A B C D E F G H I J K L M N O P Q R S T U V W X Y Z

Chris Rea - Lets Dance tab

i am positive this is right

e|----------------------------------------------|
b|-3-0--3--3--3-0--3-0--3-0--3--3--3-0--3-------|
g|-2-0--2--2--2-0--2-0--2-0--2--2--2-0--2-------|
d|----------------------------------------------|
a|----------------------------------------------|
E|----------------------------------------------|

e|----------------------------------------------|
b|-3-0--3--3--3-0--3-0--3-0--3--3--3-0--3-3-0-3-|
g|-2-0--2--2--2-0--2-0--2-0--2--2--2-0--2-2-0-2-|
d|----------------------------------------------|
a|----------------------------------------------|
E|----------------------------------------------|

thats it really easier than it sounds
repeated through the song
Tap to rate this tab
# A B C D E F G H I J K L M N O P Q R S T U V W X Y Z